Green Day - Castaway Chords & Tabs

 

Castaway Chords & Tabs

Green Day Chords & Tabs

Version: 6 Type: Tab 0 ratings
1 star 2 stars 3 stars 4 stars 5 stars
comments

Castaway Tab

   
D-Down Stroke          U-Up Stroke
*-Stop Ringing         r-Let Ring

INTRO
|----------------------------------------------------------|
|----------------------------------------------------------|
|----------------------------------------------------------|
|-8-x-8-x-8--6666----3-x-3-x-3--5555-----------------------|
|-8-x-8-x-8--6666----3-x-3-x-3--5555-----------------------|
|-6-x-6-x-6--4444----1-x-1-x-1--3333-----------------------|
  D U D U D  DUDD    D U D U D  DUDD
             ^^sounds like one chord but is two.

VERSE
|----------------------------------------------------------|
|----------------------------------------------------------|
|----------------------------------------------------------|
|-8-8-8-8-x--6666----3-3-3-3-x--5555-----------------------|
|-8-8-8-8-x--6666----3-3-3-3-x--5555-----------------------|
|-6-6-6-6-x--4444----3-3-3-3-x--3333-----------------------|
  D U D U D  DUDD    D U D U D  DUDD
[ Tab from: http://www.guitartabs.cc/tabs/g/green_day/castaway_tab_ver_6.html ]
CHORUS
|----------------------------------------------------------|
|----------------------------------------------------------|
|----------------------------------------------------------|
|-8*-8*-8----6666----3*-3*-3----5555-----------------------|
|-8*-8*-8----6666----3*-3*-3----5555-----------------------|
|-6*-6*-6----4444----1*-1*-1----3333-----------------------|
  D  D  D    DUDD    D  D  D    DUDD

BRIDGE
|----------------------------------------------------------|
|----------------------------------------------------------|
|----------------------------------------------------------|
|--3r--------------5r--------------------------------------|
|--3r--------------5r--------------------------------------|
|--1r--------------3r--------------------------------------|
   D               D

  "Lost and found, Trouble bound..."



O-R-D-E-R:
INTRO
VERSE
CHORUS
BRIDGE
INTRO
VERSE
CHORUS
BRIDGE
INTRO
SOLO-I have no idea how it goes but if I get something I'll post it
BASSLINE-It's a version of the main bass riff so get that and play with it
CHORUS
INTRO
Comments