Green Day - Castaway Chords & Tabs

 

Castaway Chords & Tabs

Green Day Chords & Tabs

Version: 4 Type: Tab 0 ratings
1 star 2 stars 3 stars 4 stars 5 stars
comments

Castaway Tab

   
Green Day
Album:WARNING
Song: Castaway
Tabed by Daniel BŠez 
Venezuela
(d412b@hotmail.com)


Intro, Verse 1 & Chorus
   
E|-x-x-x-7-x-7-x-7-(-4-4-(-x-x-2-x-2-x-2-x-(------|
B|-x-x-x-9-x-9-x-9-(-6-6-(-x-x-4-x-4-x-4-x-(-2-2--|
G|-x-x-x-9-x-9-x-9-(-6-6-(-x-x-4-x-4-x-4-x-(-4-4--|
D|-------------------------------------------4-4--|
A|------------------------------------------------|
E|------------------------------------------------|


Verse 2

E|-7-7-7-(-4-4-(-x-2-x-2-x-2-x-(------|
B|-9-9-9-(-6-6-(-x-4-x-4-x-4-x-(-2-2--|
G|-9-9-9-(-6-6-(-x-4-x-4-x-4-x-(-4-4--|
D|-------------------------------4-4--|
A|------------------------------------|
E|------------------------------------|


Pre-chorus
                                                                  2X
E|-0-0-0-0-0-00-0-0-0-0-0-00-0-0-0-0-0-00-0-0-0-0-0-|---------------|
B|-2-2-2-2-2-22-2-2-2-2-2-22-2-2-2-2-2-22-2-2-2-2-2-|-2-x-2-x-2-1(2-|
G|-2-2-2-2-2-22-2-2-2-2-2-22-2-2-2-2-2-22-2-2-2-2-2-|-4-x-4-x-4-3(4-|
D|--------------------------------------------------|-4-x-4-x-4-3(4-|
A|--------------------------------------------------|---------------|
E|--------------------------------------------------|---------------|

                
E|-0-0-0-0-0-00-0-0-0-0-0-00-0-0-0-0-0-00-0-0-0-0-0-|-2-|
B|-2-2-2-2-2-22-2-2-2-2-2-22-2-2-2-2-2-22-2-2-2-2-2-|-4-|
G|-2-2-2-2-2-22-2-2-2-2-2-22-2-2-2-2-2-22-2-2-2-2-2-|-4-|
D|--------------------------------------------------|---|
A|--------------------------------------------------|---| 
E|--------------------------------------------------|---|

end 1

E|-0-|
B|-2-|
G|-2-|
D|---|
A|---|
E|---|


end 2

E|-2-|
B|-2-|
G|-4-|
D|---|
A|---|
E|---|


end 3

E|-0-0-0-0-0-00-0-0-0-0-0-|
B|-2-2-2-2-2-22-2-2-2-2-2-|
G|-2-2-2-2-2-22-2-2-2-2-2-|
D|------------------------|
A|------------------------|
E|------------------------|


end 4

E|-2-2-2-2-2-22-2-2-2-2-2-|
B|-4-4-4-4-4-44-4-4-4-4-4-|
G|-4-4-4-4-4-44-4-4-4-4-4-|
D|------------------------|
A|------------------------|
E|------------------------|



[ Tab from: http://www.guitartabs.cc/tabs/g/green_day/castaway_tab_ver_4.html ]
Intro 4X

Verse

I'm on a sentimental journey 
Into sight and sound
Of no return no looking back or down
A conscientious objector
To the war thats in my mind
Leaving in a lurch
and I'm taking back whats mine

Pre-chorus

I'm on a mission
Into destination unknown
An expedition
Onto desolation road
(where I'm a)


Chorus

Castaway - Going at it alone
Castaway - Now I'm on my own
Castaway - Going at it alone
Castaway - Now I'm on my own

end1

Lost and found

end 2

Trouble Bound
Castaway


Verse 1(2x)

Verse 1
  
I'm riding on the night train
an driving stolen cars
Testing my nerves out on the blvd
Spontanious Combustion in the 
corners of my mind
Leaving in a lurch
and I'm taking back whats mine


Pre-chorus

I'm on a mission
Into destination unknown
An expedition
Onto desolation road
(where I'm a)


Chorus

Castaway - Going at it alone
Castaway - Now I'm on my own
Castaway - Going at it alone
Castaway - Now I'm on my own

end 1

Lost and found

end 2

Trouble Bound
Castaway

Verse 1(2x)

Verse 2

Verse 1(1x)


Solo 

E|----------------------|-------------------------------------|
B|----------------------|-------------------------------------|
G|----------------------|-------------------------------------|
D|--10-12-12--10-12-12--|--11-14p-11-14p-11-14p-11-14p--11br--|
A|-----12--------12-----|-------------------------------------|
E|----------------------|-------------------------------------|


(bass & drums only)

I'm on a sentimental journey 
Into sight and sound
Of no return no looking back or down
A conscientious objector
To the war thats in my mind
Leaving in a lurch
and I'm taking back whats mine

Pre-chorus
(here being this part you have to do a long mute)

I'm on a mission
Into destination unknown
An expedition
Onto desolation road
(where I'm a)


Chorus

Castaway - Going at it alone
Castaway - Now I'm on my own
Castaway - Going at it alone
Castaway - Now I'm on my own

end 3

Lost and found

end 4

Trouble Bound
Castaway

Verse 1(2X)
 
Castaway

Verse 2

Castaway

Verse 1

Castaway








Comments