Green Day - Burnout Chords & Tabs

 

Burnout Chords & Tabs

Green Day Chords & Tabs

Version: 1 Type: Bass Tab 2 ratings
1 star 2 stars 3 stars 4 stars 5 stars
comments

Burnout Bass Tab

Song: Burnout
Artist: Green Day
Album: Dookie

Verse
G--------------------------------4-4-------------------------------------
D------------------------------------2-2---------------------------------
A------------2-2-2-2-2------------------------------2-2-2-2-2-5-5-5-5-5--
E--2-2-2-2-2-----------2-2-2-2-2----------2-2-2-2-2----------------------
[ Tab from: http://www.guitartabs.cc/tabs/g/green_day/burnout_btab.html ]
Chorus
G--------------------------------------------------------4----------------------------
D-------------------------------------------------------------------------------------
A--2-2-2-2-2-----------2-2-2-2-2---------------2-2-2-2-2-------------4-4-4-4-4-4-4-4--
E------------2-2-2-2-2-----------0-0-2-2-2-2-2-------------0-0-0-0-0------------------

Bridge
G------------------4h6-6-6-6-6-6-6-6-6-6-6-6-6-6--
D-------------------------------------------------
A--4-4-4-4-4-4-4-4--------------------------------
E-------------------------------------------------

Solo/Outro
G---------------
D---------------
A---------------
E--2-2-2--0--2--


Verse X2
Chorus X1
Verse X2
Chorus X2
Bridge X1
Solo X4
Chorus X2
Outro X1


This tab was created by Christian Mangs. Email me at:
Bassman9@users.basstabarchive.com

Comments