Green Day - Brat Chords & Tabs

 

Brat Chords & Tabs

Green Day Chords & Tabs

Version: 3 Type: Tab 0 ratings
1 star 2 stars 3 stars 4 stars 5 stars
comments

Brat Tab

Green Day Brat
From the album Insomniac
Track 2
Tabbed by Liam
Email: guitar_rocker_47@hotmail.com
Tuning half a step down
when a chord has a * underneath palm mute it.

Intro
e|---------------------------------------------------------------------------|
B|---------------------------------------------------------------------------|
G|-5-5-5-------7--7--7--7----------------------------------------------------|
D|-5-5-5--5-5--7--7--7--7----------------------------------------------------|
A|-3-3-3--5-5--5--5--5--5----------------------------------------------------|
E|--------3-3----------------------------------------------------------------|

Verse
e|---------------------------------------------------------------------------|
B|---------------------------------------------------------------------------|
G|--------5-5-5---------------5-5-5----7-7-7-7-7-7---------------------------| x3
D|-5-5-5--5-5-5--5-5-5-5-5-5--5-5-5-5--7-7-7-7-7-7---------------------------|
A|-5-5-5--3-3-3--5-5-5-5-5-5--3-3-3-5--5-5-5-5-5-5---------------------------|
E|-3-3-3---------3-3-3-3-3-3--------3----------------------------------------|
[ Tab from: http://www.guitartabs.cc/tabs/g/green_day/brat_tab_ver_3.html ]
Chorus
e|---------------------------------------------------------------------------|
B|---------------------------------------------------------------------------|
G|-5-5-5------5-5-5------5-5-5------7-7-7-7-7-7-7-7--5-5-5------5-5-5--------|
D|-5-5-5-5-x--5-5-5-5-x--5-5-5-5-x--7-7-7-7-7-7-7-7--5-5-5-5-x--5-5-5-5-x----|
A|-3-3-3-5-x--3-3-3-5-x--3-3-3-5-x--5-5-5-5-5-5-5-5--3-3-3-5-x--3-3-3-5-x----|
E|-------3-x--------3-x--------3-x-------------------------3-x--------3-x----|

e|---------------------------------------------------------------------------|
B|---------------------------------------------------------------------------|
G|----------------------------------------7-7-x------------------------------|
D|-3-3-3-3-3-3--5-5-5-5-5-5-(bass riff)--7-7-x------------------------------|
A|-3-3-3-3-3-3--5-5-5-5-5-5---------------5-5-x------------------------------|
E|-1-1-1-1-1-1--3-3-3-3-3-3--------------------------------------------------|
PM  * * * * * *

Order

Intro 
Verse 1
Chorus
Verse 2
Chorus
Bridge (Verse chords)
Chorus
And end on this

e|------|
B|------|
G|------|
D|--5---|
A|--5---|
E|--3---|


Lyrics

(Verse 1)
Mom and Dad don't look so hot these days
They're getting over the hill
Death is closing in and catching up
As far as I can tell
Got a plan of action and cold blood
And it smells of defiance
I'll just wait for Mom and Dad to die
Get my inheritance

(Chorus)
Well now I want more
Cuz I'm getting bored
And I'm going nowhere fast
I was once full of doubt
But it's all figured out
Well nothing good can last

(Verse 2)
Crow's feet and rot are setting in
And time is running out
My parent's income interest rate
Is gaining higher clout
I'm a snot-nosed slob without a job
And I know I damn well should
Mom and Dad don't look so hot these days
But my future's looking good

(Chorus)
(Bridge)
(Chorus)
Comments