Green Day - Brat Chords & Tabs

 

Brat Chords & Tabs

Green Day Chords & Tabs

Version: 2 Type: Tab 0 ratings
1 star 2 stars 3 stars 4 stars 5 stars
comments

Brat Tab

   
BRAT - Green Day

Verse:
Mom and Dad don't look so hot these days
	A	G      	C
they're getting over the hill,
C		D	C	A
Death is closing in and catching up
C	A	D
as far as I can tell,
C		D	C	A
Got a plan of action and cold blood
C 	A	D
and it smells of defiance,
C		D	C	A
I'll just wait for Mom and Dad to die
C	A	D
and get my inheritance.

Chorus:
C		D	C		A
Now I want more because I'm getting bored
C		D	A
and I'm going nowhere fast,
C		D	C		A
I was once filled with doubt and now it's all figured out
C		D	D(PM) 	D
that nothing good can last.

Verse:
C		D	C	A
Crows feet and rot are setting in
C	A	D
and time is running out,
C		D	C	A
My parents income interest rate
C	A	D
is gaining higher clout,
C		D	C	A
I'm a snot nosed sod without a job
C	A	D
and I know I damn well should,
C		D	C	A
Mom and Dad don't look so hot these days
C	A	D
but my future's looking good.

Chorus:
C		D	C		A
Now I want more because I'm getting bored
C		D	A
and I'm going nowhere fast,
C		D	C		A
I was once filled with doubt and now it's all figured out
C		D	D(PM) 	D
that nothing good can last.

================================================================


BRAT - Green Day

By:Nimrod10397@htomail.com
[ Tab from: http://www.guitartabs.cc/tabs/g/green_day/brat_tab_ver_2.html ]
Beginning: (Mom and dad don't look so hot these days)
   1st 3 chords
e|---------------------------------------------------------------------------|
B|---------------------------------------------------------------------------|
G|--4-------------7----------------------------------------------------------|
D|--4------4------7----------------------------------------------------------|
A|--2------4------5---------------------------------------------------- -----|
E|---------2-----------------------------------------------------------------|

Verse: (Death is closing in and catching up...)
e|---------------------------------------------------------------------------|
B|---------------------------------------------------------------------------|
G|-------4-------------------------------------------------------------------|
D|--4----4----4--------------------------------------------------------------|
A|--4----2----4--------------------------------------------------------------|
E|--2---------2--------------------------------------------------------------|

Verse continued: (As far as I can tell)
e|---------------------------------------------------------------------------|
B|---------------------------------------------------------------------------|
G|--4-------6----------------------------------------------------------------|
D|--4---4---6----------------------------------------------------------------|
A|--2---4---4----------------------------------------------------------------|
E|------2--------------------------------------------------------------------|

	(It does this twice)

Chorus: ( Well now I want more cos I'm gettin bored..)
e|---------------------------------------------------------------------------|
B|---------------------------------------------------------------------------|
G|--4-------4-------4-------6---------4-------4-------6***6------------------|
D|--4---4---4---4---4---4---6---------4---4---4---4---6***6------------------|
A|--2---4---2---4---2---4---4---------2---4---2---4---4***4------------------|
E|------2-------2-------2-----------------2-------2--------------------------|

 						pm
 Back to verse

Ending
e|---------------------------------------------------------------------------|
B|---------------------------------------------------------------------------|
G|---6-----------------------------------------------------------------------|
D|---6-----4-----------------------------------------------------------------|
A|---4-----4-----------------------------------------------------------------|
E|---------2-----------------------------------------------------------------|

 Thats it!
Comments