Green Day - Brain Stew Chords & Tabs

 

Brain Stew Chords & Tabs

Green Day Chords & Tabs

Version: 3 Type: Tab 0 ratings
1 star 2 stars 3 stars 4 stars 5 stars
comments

Brain Stew Tab

artist: Greenday
song: Brain Stew

This is my first tab but I'm sure it is really close.
Listen to the song to get the beat.

*-palm mute

verses:

-----------------------------
-----------------------------
-----------------------------
6-6-0-5-5-0-4-4-0-3-3-0-2-2-0
6-6-0-5-5-0-4-4-0-3-3-0-2-2-0
4-4-0-3-3-0-2-2-0-1-1-0-0-0-0
    *     *     *     *     *

"..on my own, here we go.."
[ Tab from: http://www.guitartabs.cc/tabs/g/green_day/brain_stew_tab_ver_3.html ]
-------------------------------
-------------------------------
-------------------------------
6-6-0-0-5-5-0-0-4-4-0-0-3-3-2-2
6-6-0-0-5-5-0-0-4-4-0-0-3-3-2-2
4-4-0-0-3-3-0-0-2-2-0-0-1-1-0-0
    * *     * *     * *          

"My mind is set on over drive.."


-----------------------------
-----------------------------
-----------------------------
6-6-0-5-5-0-4-4-0-3-3-0-2-2-0
6-6-0-5-5-0-4-4-0-3-3-0-2-2-0
4-4-0-3-3-0-2-2-0-1-1-0-0-0-0
    *     *     *     *     *


__________________________________________________
Do You Yahoo!?
Get personalized email addresses from Yahoo! Mail
http://personal.mail.yahoo.com/


Comments