Green Day - Boulevard Of Broken Dreams Chords & Tabs

 

Boulevard Of Broken Dreams Chords & Tabs

Green Day Chords & Tabs

Version: 5 Type: Tab 0 ratings
1 star 2 stars 3 stars 4 stars 5 stars
comments

Boulevard Of Broken Dreams Tab

Artist: Green Day
Song: Boulevard of broken dreams
Album: American Idiot
Tabbed by: *FRANCO SAAVEDRA* (de argentina)
Emeil: FNS_FRANCO@HOTMAIL.COM

------------------------------------------------------------
        GEEN DAY:  BOULEVARD OF BROKEN DREAMS
------------------------------------------------------------
TUNING: STANDARD


INTRO/VERSE/PREVERSE

Guitar 1: (with distortion)

e--------------------------------------------------------------------|
B--------------------------------------------------------------------|
G--------------------------------------------------------------------|x1
D--3~----------------------------------------------------------------|
A--3~----------------------------------------------------------------|
E--1~----------------------------------------------------------------|

Guitar 2: (with "super" distortion)

e--------------------------------------------------------------------|
B--------------------------------------------------------------------|
G--------------------8*-8*-------------------------------------------|x?
D--3*-3*----6*-6*----8*-8*----8*-8*----------------------------------|
A--3*-3*----6*-6*----6*-6*----8*-8*----------------------------------|
E--1*-1*----4*-4*-------------6*-6*----------------------------------|

Guitar 3: (acoustic)

e--------------------------------------------------------------------|
B--------------------------------------------------------------------|
G------------------8-8-8---------------------------------------------|x?
D--3-3-3---6-6-6---8-8-8---8-8-8-------------------------------------|
A--3-3-3---6-6-6---6-6-6---8-8-8-------------------------------------|
E--1-1-1---4-4-4-----------6-6-6-------------------------------------|

Guitar 4:  (with distortion)

e--1+--4+----8+---6+----3+--4+---------------------------------------|
B--------------------------------------------------------------------|
G--------------------------------------------------------------------|x?
D--------------------------------------------------------------------|
A--------------------------------------------------------------------|
E--------------------------------------------------------------------|


CHORUS:

Guitar 4: (with distortion)
[ Tab from: http://www.guitartabs.cc/tabs/g/green_day/boulevard_of_broken_dreams_tab_ver_5.html ]
e--------------------------------------------------------------------|
B--------------------------------------------------------------------|
G--6-6-6---------8-8-8-----------------------------------------------|x?
D--6-6-6--6-6-6--8-8-8--8-8-8----------------------------------------|
A--4-4-4--6-6-6--6-6-6--8-8-8----------------------------------------|
E---------4-4-4---------6-6-6----------------------------------------|


Guitar 4:  (with distortion)

e--1--4----8---6----3--4---------------------------------------------|
B--------------------------------------------------------------------|
G--------------------------------------------------------------------|(sometimes)
D--------------------------------------------------------------------|
A--------------------------------------------------------------------|
E--------------------------------------------------------------------|


BRIDGE:

Guitar 4:  (with distortion
e--------------------------------------------------------------------|
B--------------------------------------------------------------------|
G--6--6--------------8--8--------------------------------------------|x?
D--6--6-----6--6-----8--8-----8--8-----------------------------------|
A--4--4-----6--6-----6--6-----8--8-----------------------------------|
E-----------4--4--------------6--6-----------------------------------|


Guitar 4:  (with distortion) x2?

e--1-1-3-4----8---6----3--4------------------------------------------|
B--------------------------------------------------------------------|
G--------------------------------------------------------------------|
D--------------------------------------------------------------------|
A--------------------------------------------------------------------|
E--------------------------------------------------------------------|

Guitar 3: (acoustic)

e--------------------------------------------------------------------|
B--------------------------------------------------------------------|
G------------------8-8-8---------------------------------------------|x?
D--3-3-3---6-6-6---8-8-8---8-8-8-------------------------------------|
A--3-3-3---6-6-6---6-6-6---8-8-8-------------------------------------|
E--1-1-1---4-4-4-----------6-6-6-------------------------------------|
Comments