Green Day - Boulevard Of Broken Dreams Chords & Tabs

 

Boulevard Of Broken Dreams Chords & Tabs

Green Day Chords & Tabs

Version: 12 Type: Tab 0 ratings
1 star 2 stars 3 stars 4 stars 5 stars
comments

Boulevard Of Broken Dreams Tab

   
Artist: Green Day
Song: Boulevard of Broken Dreams
Album: American Idiot


Tabbed by me(Dan Anto)
I hope you'll like it...

For any comments, suggestions or anything useful this is my e-mail:"danto12@hotmail.com"


\= slid up
/= slid down 

Fm 133111
G# 466544
D# 668886
A# 688766


Intro:
Guitar 1:
Fm G# D# A# >x2

Verse:
Guitar 1:
Fm         G#
  I walk a lonely road
    D#            A#          Fm
The only one that I have ever known
           G#
Don't know were it goes
D#              A#	       Fm
But its home to me and I walk alone

       G#        D#       A#
|-----------------------------------|
|--8\9-----13/11-----8\9------------|
|-----------------------------------|
|-----------------------------------|
|-----------------------------------|
|-----------------------------------|

Verse:
Guitar 1:

Fm            G#
  I walk this empty street
D#          A#             Fm
On the boulevard of broken dreams
          G#
When the city sleeps
    D#           A#             Fm
And I'm the only one and I walk alone

       G#        D#         A#
|-----------------------------------|
|--8\9-----13/11------8\9-----------|
|-----------------------------------|
|-----------------------------------|
|-----------------------------------|
|-----------------------------------|
					  Fm
		     I walk alone I walk alone

Guitar 1:
       G#        D#         A#
|-----------------------------------|
|--8\9-----13/11------8\9-----------|
|-----------------------------------|
|-----------------------------------|
|-----------------------------------|
|-----------------------------------|
|
|Guitar 2:
|			     F5   F5   G5  G#5
|---------------------------------------------|
|---------------------------------------------|
|---------------------------------------------|
|---------------------------3----3---\5---\6--|
|---------------------------3----3---\5---\6--|
|---------------------------1----1---\3---\4--|
		     I walk alone I    walk a

Chorus:
Guitar 1&2:
 C#5      G#5      D#5            F5      |\
|-----------------------------------------||
|-----------------------------------------||
|-6-6-6-6-----------8-8-8-8---------------|>>x3
|-6-6-6-6--6-6-6-6--8-8-8-8-------3-3-3-3-||
|-4-4-4-4--6-6-6-6--6-6-6-6-------3-3-3-3-||
|----------4-4-4-4----------------1-1-1-1-|/


      My shadow's   only one that walks beside me

      My shallow heart's the only thing that's beating

      Sometimes I wish someone up there will find me
 C#5	  G#5	    C5
|----------------------------------|
|----------------------------------|
|-6-6-6-6-----------5-5-5-5-5------|
|-6-6-6-6--6-6-6-6--5-5-5-5-5------|
|-4-4-4-4--6-6-6-6--3-3-3-3-3------|
|----------4-4-4-4-----------------| 
     Till then I walk alone

Guitar 1:
       G#        D#         A#
|-----------------------------------|
|--8\9-----13/11------8\9-----------|
|-----------------------------------|
|-----------------------------------|
|-----------------------------------|
|-----------------------------------|
   Ahha     ahha       ahha   ahha 

   Ahha     ahha       ahha


Verse:
Guitar 1:
Fm            G#
  I'm walking down the line
D#              A#              Fm
That divides me somewhere in my mind
       G#          D#
On the border line of the edge
    A#          Fm
And were I walk alone
       G#        D#       A#
|-----------------------------------|
|--8\9-----13/11-----8\9------------|
|-----------------------------------|
|-----------------------------------|
|-----------------------------------|
|-----------------------------------|

Verse:
Guitar 1:
Fm        G#                D#
  Read between the lines of what's
              A#               Fm
F**ked up and everything's all right
         G#          D#                 A#
Check my vital signs and know I'm still alive
           Fm
And I walk alone
       G#        D#         A#
|-----------------------------------|
|--8\9-----13/11------8\9-----------|
|-----------------------------------|
|-----------------------------------|
|-----------------------------------|
|-----------------------------------|
					  Fm
		     I walk alone I walk alone

Guitar 1:
       G#        D#         A#
|-----------------------------------|
|--8\9-----13/11------8\9-----------|
|-----------------------------------|
|-----------------------------------|
|-----------------------------------|
|-----------------------------------|
|
|Guitar 2:
|			     F5   F5   G5  G#5
|---------------------------------------------|
|---------------------------------------------|
|---------------------------------------------|
|---------------------------3----3---\5---\6--|
|---------------------------3----3---\5---\6--|
|---------------------------1----1---\3---\4--|
		     I walk alone I    walk a

Chorus:
Guitar 1&2:
 C#5      G#5      D#5           F5       |\
|-----------------------------------------||
|-----------------------------------------||
|-6-6-6-6-----------8-8-8-8---------------|>>x3
|-6-6-6-6--6-6-6-6--8-8-8-8-------3-3-3-3-||
|-4-4-4-4--6-6-6-6--6-6-6-6-------3-3-3-3-||
|----------4-4-4-4----------------1-1-1-1-|/


      My shadow's   only one that walks beside me

      My shallow heart's the only thing that's beating

      Sometimes I wish someone up there will find me
 C#5	  G#5	    C5
|----------------------------------|
|----------------------------------|
|-6-6-6-6-----------5-5-5-5-5------|
|-6-6-6-6--6-6-6-6--5-5-5-5-5------|
|-4-4-4-4--6-6-6-6--3-3-3-3-3------|
|----------4-4-4-4-----------------|
      Till then I walk alone

Guitar 1:
       G#        D#         A#
|-----------------------------------|
|--8\9-----13/11------8\9-----------|
|-----------------------------------|
|-----------------------------------|
|-----------------------------------|
|-----------------------------------|
  Ahha   ahha   ahha   ahha 

ahha   ahha
|Guitar 2:
|			     F5   F5   G5  G#5
|---------------------------------------------|
|---------------------------------------------|
|---------------------------------------------|
|---------------------------3----3---\5---\6--|
|---------------------------3----3---\5---\6--|
|---------------------------1----1---\3---\4--|
		     I walk alone I    walk a

Solo:
[ Tab from: http://www.guitartabs.cc/tabs/g/green_day/boulevard_of_broken_dreams_tab_ver_12.html ]
Guitar 1:
   F5      G5 G#5          C5 A#5          G5 G#5
|---------------------------------------------------------------|\
|---------------------------------------------------------------||
|--10-10--\12-\13--13-13--\17-/15--15-15--/12-\13--13-13-13-13--||
|--10-10--\12-\13--13-13--\17-/15--15-15--/12-\13--13-13-13-13--||
|--8--8---\10-\11--11-11--\15-/13--13-13--/10-\11--11-11-11-11--||
|---------------------------------------------------------------||
|                                                               |/
|Guitar 2:                                                      |>>x2
| C#5             G#5             D#5              F5           |\
|---------------------------------------------------------------||
|---------------------------------------------------------------||
|--6--6----6---6-------------------8--8----8---8----------------||
|--6--6----6---6---6--6----6---6---8--8----8---8---3-3--3-3-\/||
|--4--4----4---4---6--6----6---6---6--6----6---6---3-3--3--3-\/||
|------------------4--4----4---4-------------------1-1--1--1-\/|/

Guitar 1:
   F5      G5 G#5          C5 A#5          G5 G#5
|---------------------------------------------------------------|
|---------------------------------------------------------------|
|--10-10--\12-\13--13-13--\17-/15--15-15--/12-\13--13-13-13-13--|
|--10-10--\12-\13--13-13--\17-/15--15-15--/12-\13--13-13-13-13--|
|--8--8---\10-\11--11-11--\15-/13--13-13--/10-\11--11-11-11-11--|
|---------------------------------------------------------------|
|                                                               |
|Guitar 2:                                                      |
| C#5             G#5             D#5              F5           |
|---------------------------------------------------------------|
|---------------------------------------------------------------|
|--6--6----------------------------8--8----8---8----------------|
|--6--6------------6--6------------8--8----8---8---3-3-3--3-\/|
|--4--4------------6--6------------6--6----6---6---3-3-3--3-\/|
|------------------4--4----------------------------1-1-1--1-\/|

Guitar 1:
   F5      G5 G#5          C5 A#5  C5
|---------------------------------------------------------------|
|---------------------------------------------------------------|
|--10-10--\12-\13--13-13--\17-/15-17171717171717171717171717---|
|--10-10--\12-\13--13-13--\17-/15-17171717171717171717171717---|
|--8--8---\10-\11--11-11--\15-/13--15151515151515151515151515---|
|---------------------------------------------------------------|
|                                                               |
|Guitar 2:                                                      |
| C#5             G#5              C5
|---------------------------------------------------------------|
|---------------------------------------------------------------|
|--6--6----------------------------55555555555555555555555555---|
|--6--6------------6--6------------55555555555555555555555555---|
|--4--4------------6--6------------33333333333333333333333333---|
|------------------4--4-----------------------------------------|

Verse:
Guitar 1:
Fm            G#
  I walk this empty street
D#          A#             Fm
On the boulevard of broken dreams
         G#
When the city sleeps
    D#           A#             
And I'm the only one and 

Guitar 2:
                       |------------|
                       |------------|
                       |------------|
                       |-3-3---\5---|
                       |-3-3---\5---|
                       |-1-1---\3---|
                         I walk a-

Chorus:
Guitar 1&2:
 C#5	  G#5	    D#5		  F5		x2
|-----------------------------------------|
|-----------------------------------------|
|-6-6-6-6-----------8-8-8-8---------------|
|-6-6-6-6--6-6-6-6--8-8-8-8-------3-3-3-3-|
|-4-4-4-4--6-6-6-6--6-6-6-6-------3-3-3-3-|
|----------4-4-4-4----------------1-1-1-1-|
      My shadow's   only one that walks beside me
      My shallow heart's the only thing that's beating

Guitar 1:
   F5      G5 G#5          C5 A#5          G5 G#5
|---------------------------------------------------------------|
|---------------------------------------------------------------|
|--10-10--\12-\13--13-13--\17-/15--15-15--/12-\13--13-13-13-13--|
|--10-10--\12-\13--13-13--\17-/15--15-15--/12-\13--13-13-13-13--|
|--8--8---\10-\11--11-11--\15-/13--13-13--/10-\11--11-11-11-11--|
|---------------------------------------------------------------|
|                                                               |
|Guitar 2:                                                      |
| C#5             G#5             D#5              F5           |
|---------------------------------------------------------------|
|---------------------------------------------------------------|
|--6--6----6---6-------------------8--8----8---8----------------|
|--6--6----6---6---6--6----6---6---8--8----8---8---3-3--3--3-\/|
|--4--4----4---4---6--6----6---6---6--6----6---6---3-3--3--3-\/|
|------------------4--4----4---4-------------------1-1--1--1-\/|
      Sometimes I wish someone up there will find me

Guitar 1:
   F5      G5 G#5          C5 A#5  C5
|------------------------------------------------------------------|
|------------------------------------------------------------------|
|--10-10--\12-\13--13-13--\17-/15-17171717171717171717171717171717|
|--10-10--\12-\13--13-13--\17-/15-17171717171717171717171717171717|
|--8--8---\10-\11--11-11--\15-/13--15151515151515151515151515151515|
|------------------------------------------------------------------|
|                                                                  |
|Guitar 2:                                                         |
| C#5             G#5              C5                              |
|------------------------------------------------------------------|
|------------------------------------------------------------------|
|--6--6----6---6-------------------55555555555555555555555555555555|
|--6--6----6---6---6--6----6---6---55555555555555555555555555555555|
|--4--4----4---4---6--6----6---6---33333333333333333333333333333333|
|------------------4--4----4---4-----------------------------------|
           Till then  I          walk alone


Outro:
Guitar 1:
   F5                                     G#5       E5      |\
|-----------------------------------------------------------||
|-----------------------------------------------------------||
|--10101010101010101010101010101010101010-\13131313/99999999|>>x3
|--10101010101010101010101010101010101010-\13131313/99999999||
|--8-8-8-8-8-8-8-8-8-8-8-8-8-8-8-8-8-8-8--\11111111/77777777||
|-----------------------------------------------------------|/

   F5                                     G#5    E5      
|------------------------------------------------------|
|------------------------------------------------------|
|--10101010101010101010101010101010101010-\13-13/9-9--|
|--10101010101010101010101010101010101010-\11-11/9-9--|
|--8-8-8-8-8-8-8-8-8-8-8-8-8-8-8-8-8-8-8--\11-11/7-7--|
|------------------------------------------------------|
Guitar 2:
   F5       C#5       D#5        C5       G#5       E5         |\
|--------------------------------------------------------------||
|--------------------------------------------------------------||
|------------6---6-6-\8---8-8-/7---7--7----------------------|>>x3
|--3---3--3--6---6--6-\8---8--8-/7---7-7-6---6-6/2---2--2--||
|--3---3--3--4---4--4-\6---6-6-/5---5-5-6---6-6/2---2--2--||
|--1---1--1--------------------------------4---4-4/0---0--0--|/

   F5       C#5       D#5        C5       G#5    E5
|------------------------------------------------------|
|------------------------------------------------------|
|------------6---6-6-\8---8--8-/7---7--7--------------|
|--3---3-3--6---6-6-\8---8--8-/7---7--7--6--6-/2--2--|
|--3---3-3--4---4-4\6---6-6-/5---5--5--6--6-/2--2--|
|--1---1--1--------------------------------4--4/0--0--|
Comments