Green Day - Boulevard Of Broken Dreams Chords & Tabs

 

Boulevard Of Broken Dreams Chords & Tabs

Green Day Chords & Tabs

Version: 1 Type: Tab 1 rating
1 star 2 stars 3 stars 4 stars 5 stars
comments

Boulevard Of Broken Dreams Tab

Verse:
E|-x----x----x----x---|
B|-x----x----x----x---|
G|-x----x----8----x---|
D|-3----6----8----8---|
A|-3----6----6----8---|
E|-1----4----x----6---|

Slide:
E|---------------------------------|
B|-8/9----13\11----8/9----9\6------|
G|---------------------------------|
D|---------------------------------|
A|---------------------------------|
E|---------------------------------|
[ Tab from: http://www.guitartabs.cc/tabs/g/green_day/boulevard_of_broken_dreams_tab.html ]
Chorus:
E|-x----x----x----x---|
B|-x----x----x----x---|
G|-6----x----8----x---|
D|-6----6----8----3---|
A|-4----6----6----3---|
E|-x----4----x----1---|

Ending:
E|-x----x----x----x----x----x---|
B|-x----x----x----x----x----x---|
G|-x----6----8----7----x----x---|
D|-3----6----8----7----6----2---|
A|-3----4----6----5----6----2---|
E|-1----x----x----x----4----0---|

Order:
1. Verse (x4)
2. Slide
3. Verse (x4)
4. Chorus (x4)
5. Verse (x4)
6. Slide
7. Verse (x4)
8. Chorus (x4)
9. Verse (x2)
10. [Solo] Slide & Chorus (x4)
11. Verse (x2)
12. Chorus (x4)
13. Ending (x4)






















Comments