Green Day - Boulevard Of Broken Dreams Chords & Tabs

 

Boulevard Of Broken Dreams Chords & Tabs

Green Day Chords & Tabs

Version: 8 Type: Bass Tab 0 ratings
1 star 2 stars 3 stars 4 stars 5 stars
comments

Boulevard Of Broken Dreams Bass Tab

INSTRUMENT : 4 SAIDS BASS
TEMPO      : 84 bpm
(probably : half step down, but only if the hole band makes it like that)

Intro basspause


After 17sec (...Don't know...)

 1&2&3&4&|1&2&3&4&|
G|-------|1~~~----|
D|-------|----1~~~| 6x
A|-------|--------|
E|1~\44~~|--------|

Refrain:

  1&2&3&4&|1&2&3&4&|        1&2&3&4&|1&2&3&4&|
G|--------|--------|        --------|--------|
D|4444----|1111----|3X Then:--------|--------|
A|----4444|--------|        4444----|33333X--|
E|--------|----1111|        ----4444|--------|


Bridge (aaaaaaaaaaa ;])

1&2&3&4&|1&2&3&4&|
G|-------|1~~~----|
D|-------|----1~~~| 2x
A|-------|--------|
E|1~\44~~|--------|

Verse
 1&2&3&4&|1&2&3&4&|
G|-------|1~~~----|
D|-------|----1~~~| 6x
A|-------|--------|
E|1~\44~~|--------|

Refrain:

  1&2&3&4&|1&2&3&4&|        1&2&3&4&|1&2&3&4&|
G|--------|--------|        --------|--------|
D|4444----|1111----|3X Then:--------|--------|
A|----4444|--------|        4444----|33333X--|
E|--------|----1111|        ----4444|--------|

Bridge (aaaaaaaaaaa ;])
[ Tab from: http://www.guitartabs.cc/tabs/g/green_day/boulevard_of_broken_dreams_btab_ver_8.html ]
1&2&3&4&|1&2&3&4&|
G|-------|1~~~----|
D|-------|----1~~~| 2x
A|-------|--------|
E|1~\44~~|--------|

Special Refrain:
  1&2&3&4&|1&2&3&4&|        1&2&3&4&|1&2&3&4&|1&2&3&4&|1&2&3&4&|1&2&3&4&|
G|--------|--------|        --------|--------|--------|--------|--------|
D|4444----|1111----|2x then:--------|1111----|--------|--------|--------|
A|----4444|--------|        44X-----|--------|44X-----|33333333|33333X--|
E|--------|----1111|        -----44X|----1111|-----44X|--------|--------|

Guitar solo 4 parts
after that

  1&2&3&4&|1&2&3&4&|        1&2&3&4&|1&2&3&4&|1&2&3&4&|
G|--------|--------|        --------|--------|--------|
D|4444----|1111----|3X Then:--------|--------|--------|
A|----4444|--------|        4444----|33333333|33333333|
E|--------|----1111|        ----4444|--------|--------|

Outtro:

  1&2&3&4&|1&2&3&4&|1&2&3&4&|
G|--------|--------|--------|
D|--------|1~~~0~~~|--------|3X THEN
A|----4~~~|--------|--------|
E|1~~~----|--------|4~~~0~~~|

 1&2&3&4&|1&2&3&4&|1&2&3&4&|
G|--------|--------|--------|
D|--------|1~~~0~~~|--------|
A|----4~~~|--------|--------|
E|1~~~----|--------|4400X---|

MUTE TON : X
SLIDE DOWN: \
LONG TON: ~

Please vote this Tabs, or if you don't like tabs, write me a mail and ask for the real 
;)
Comments