Green Day - Boulevard Of Broken Dreams Chords & Tabs

 

Boulevard Of Broken Dreams Chords & Tabs

Green Day Chords & Tabs

Version: 2 Type: Bass Tab 40 ratings
1 star 2 stars 3 stars 4 stars 5 stars
comments

Boulevard Of Broken Dreams Bass Tab

   
Boulevard of Broken Dreams
Artist: Green Day
Album: Green Day
Tab By: atawb 
Tuning (E A D G B E)

Verse
G|---------------------|
D|---------------------|
A|-----------6-6-------|
E|-1-1--4-4-------6-6--|
[ Tab from: http://www.guitartabs.cc/tabs/g/green_day/boulevard_of_broken_dreams_btab_ver_2.html ]
Chorus                           x3  Ending
G|---------------------------------|---------------------------|
D|---------------------------------|---------------------------|
A|-4-4-4-4---------6-6-6-6---------|4-4-4-4-----------8-8-8-8--|
E|---------4-4-4-4---------1-1-1-1-|---------4-4-4-4-----------|

Outro		         x4  Ending 1 x3  Ending 2 x1
G|-------------------------|-------------|---------|
D|-------------------------|-------------|---------|
A|-------4-4-4-6-6-6-5-5-5-|-------------|---------|
E|-1-1-1-------------------|4-4-4-0-0-0--|-4-4-0-0-|
       
Verse x6
Chorus
Verse x9
Chorus
Verse x2
Chorus
Chorus (First Riff x2)
Outro
Comments