Green Day - Blood Sex And Booze Chords & Tabs

 

Blood Sex And Booze Chords & Tabs

Green Day Chords & Tabs

Version: 2 Type: Tab 3 ratings
1 star 2 stars 3 stars 4 stars 5 stars
comments

Blood Sex And Booze Tab

Artist - Green Day
Song - Blood Sex And Booze
Album - Warning
 
Verse:                   
e----------------------------------------palm muted-----------------
B-------------------------------------------------------------------
G---9-9-9-9-9-9-9-9-9-9-9-9-9------5-5-5-5-5-5-5-5-5-5-5-5----------
A---9-9-9-9-9-9-9-9-9-9-9-9-9------5-5-5-5-5-5-5-5-5-5-5-5----------
D---7-7-7-7-7-7-7-7-7-7-7-7-7------3-3-3-3-3-3-3-3-3-3-3-3----------
E----------------------------------------------------------------X-2

Chorus:
e-------------------------------------------------------------------
B-------------------------------------------------------------------
G----6-6-6-6-6-6-6-6-6-6-6-6--------9-9-9-9-9-9-9-9-9-9-9-9-9-------
A----6-6-6-6-6-6-6-6-6-6-6-6--------9-9-9-9-9-9-9-9-9-9-9-9-9-------
D----4-4-4-4-4-4-4-4-4-4-4-4--------7-7-7-7-7-7-7-7-7-7-7-7-7-------
E-------------------------------------------------------------------
[ Tab from: http://www.guitartabs.cc/tabs/g/green_day/blood_sex_and_booze_tab_ver_2.html ]
e-------------------------------------------------------------------
B-------------------------------------------------------------------
G------6-6-6-6-6-6-6-6-6-6-6-6-6----2-2-2-2-2-2-2-2-2-2----4--------
A------6-6-6-6-6-6-6-6-6-6-6-6-6----2-2-2-2-2-2-2-2-2-2----4--------
D------4-4-4-4-4-4-4-4-4-4-4-4-4----0-0-0-0-0-0-0-0-0-0----2--------
E-------------------------------------------------------------------

After Chorus
e-------------------------palm-muted--------------------------------
B-------------------------------------------------------------------
G---9-9-9-9-9-9---7-7-7-7-7-7---6-6-6-6-6---2-2-2-2-4---------------
A---9-9-9-9-9-9---7-7-7-7-7-7---6-6-6-6-6---2-2-2-2-4---------------
D---7-7-7-7-7-7---5-5-5-5-5-5---4-4-4-4-4---0-0-0-0-2---------------
E-------------------------------------------------------------------

Ending
e---------------------------------------------------------------------------
B---------------------------------------------------------------------------
G---------------------------------------------------------------------------
A--9-9-9-9-9-9-9-9-9-9----7-7-7-7-7-7-7-7----6-6-6-6-6-6-6---5-5-5-5-5-5-4--
D--9-9-9-9-9-9-9-9-9-9----7-7-7-7-7-7-7-7----6-6-6-6-6-6-6---5-5-5-5-5-5-4--
E--7-7-7-7-7-7-7-7-7-7----5-5-5-5-5-5-5-5----4-4-4-4-4-4-4---3-3-3-3-3-3-2--

     ORDER OF SONG

Verse x2 palm muted
Chorus x1
Post chorusx1 palm muted
Verse x2 palm muted
Chorus x1
Post chorus x1
Verse not palm muted x2
Chorus x1
Verse not palm muted x2
Ending		
Comments