Green Day - Blood Sex And Booze Chords & Tabs

 

Blood Sex And Booze Chords & Tabs

Green Day Chords & Tabs

Version: 4 Type: Bass Tab 0 ratings
1 star 2 stars 3 stars 4 stars 5 stars
comments

Blood Sex And Booze Bass Tab

   
Tabbed by: fenderbass1
Standard tuning (E,A,D,G)

Intro
G-------------------------------------
D-------------------------------------
A----6-7-7-7-7-7-7-7-7-7-7-7-7-7-7-7-7
E-------------------------------------

Verse:
G---------------------------------------------------------------------
D------------------------------------------------------------------0-2
A----7-7-7-7-7-7-7-7-7-7-7-7-7-7-7-7-3-3-3-3-3-3-3-3-3-3-3-3-3-2-3----
E---------------------------------------------------------------------

G---------------------------------------------------------------------
D----2-2-2-2-2-2-2-2-2-2-2-2-2-2-2-2---------------------------222----
A------------------------------------3-3-3-3-3-3-3-3-3-3-3-3-3-----2-4
E---------------------------------------------------------------------

Chorus:
G-------------------------------------------------------------------
D-------------------------------------------------------------------
A----4-4-4-4-4-4-4-4-4-4-4-4-4-4-4-4-7-7-7-7-7-7-7-7-7-7-7-7-7-7-7-7
E------------------------------------0-0-0-0-0-0-0-0-0-0-0-0-0-0-0-0

G-----------------------------------------------------
D-----------------------------------------------------
A----4-4-4-4-4-4-4-4-4-4-4-4-4-4-4-4-0-0-0-0-0-0-0-0-2
E-----------------------------------------------------

G---------------------------------------------------------------
D---------------------------------------------------------------
A----7-7-7-7-7-7-7-7-5-5-5-5-5-5-5-5-4-4-4-4-4-4-4-4-0-0-0-0-0-2
E---------------------------------------------------------------


G-------------------------------------
D-------------------------------------
A----6-7-7-7-7-7-7-7-7-7-7-7-7-7-7-7-7
E-------------------------------------

Verse:
G---------------------------------------------------------------------
D------------------------------------------------------------------0-2
A----7-7-7-7-7-7-7-7-7-7-7-7-7-7-7-7-3-3-3-3-3-3-3-3-3-3-3-3-3-2-3----
E---------------------------------------------------------------------
[ Tab from: http://www.guitartabs.cc/tabs/g/green_day/blood_sex_and_booze_btab_ver_4.html ]
G---------------------------------------------------------------------
D----2-2-2-2-2-2-2-2-2-2-2-2-2-2-2-2---------------------------222----
A------------------------------------3-3-3-3-3-3-3-3-3-3-3-3-3-----2-4
E---------------------------------------------------------------------

Chorus:
G-------------------------------------------------------------------
D-------------------------------------------------------------------
A----4-4-4-4-4-4-4-4-4-4-4-4-4-4-4-4-7-7-7-7-7-7-7-7-7-7-7-7-7-7-7-7
E------------------------------------0-0-0-0-0-0-0-0-0-0-0-0-0-0-0-0

G-----------------------------------------------------
D-----------------------------------------------------
A----4-4-4-4-4-4-4-4-4-4-4-4-4-4-4-4-0-0-0-0-0-0-0-0-2
E-----------------------------------------------------

G---------------------------------------------------------------
D---------------------------------------------------------------
A----7-7-7-7-7-7-7-7-5-5-5-5-5-5-5-5-4-4-4-4-4-4-4-4-0-0-0-0-0-2
E---------------------------------------------------------------

G-------------------------------------
D-------------------------------------
A----6-7-7-7-7-7-7-7-7-7-7-7-7-7-7-7-7
E-------------------------------------

Bridge:
G---------------------------------------------------
D----22----22----22----22---------------------------
A-------22----22----22----22-33----33----33----33---	x2
E-------------------------------33----33----33----33

Chorus:
G-------------------------------------------------------------------
D-------------------------------------------------------------------
A----4-4-4-4-4-4-4-4-4-4-4-4-4-4-4-4-7-7-7-7-7-7-7-7-7-7-7-7-7-7-7-7
E------------------------------------0-0-0-0-0-0-0-0-0-0-0-0-0-0-0-0

G-------------------------------------------------------------------
D-------------------------------------------------------------------
A----4-4-4-4-4-4-4-4-4-4-4-4-4-4-4-4-0-0-0-0-0-0-0-0-2-2-2-2-2-2-2-2
E-------------------------------------------------------------------

G---------------------------------------------------
D----22----22----22----22---------------------------
A-------22----22----22----22-33----33----33----33---	x2
E-------------------------------33----33----33----33

Ending:
G-------------------------------------------------------------
D-------------------------------------------------------------
A----7-7-7-7-7-7-7-7-5-5-5-5-5-5-5-5-4-4-4-4-4-4-4-4-3-3-3-3-2
E-------------------------------------------------------------
Comments