Green Day - Before The Lobotomy Chords & Tabs

 

Before The Lobotomy Chords & Tabs

Green Day Chords & Tabs

Version: 3 Type: Tab 0 ratings
1 star 2 stars 3 stars 4 stars 5 stars
comments

Before The Lobotomy Tab

   
----------------------------------------------------------------------------
        Before the Lobotomy (Intro) - Green Day, 21st Century Breakdown
----------------------------------------------------------------------------
Tabbed by:RyBrenn88
Email:

Tuning:1/2 step down (Eb-Ab-Db-Gb-Bb-eb)

I found this to be the most comfortable way to play the intro of this song. It sounds 
to me.

*All chords relative to tuning
[ Tab from: http://www.guitartabs.cc/tabs/g/green_day/before_the_lobotomy_tab_ver_3.html ]
      G         G        D/F#     D/F#      Dm/F      Dm/F       C
eb|------------------------0--------0---------0---------0---------0---------|
Bb|----3---------3--------3-3------3-3-------3-3-------3-3-------1-1--------|
Gb|---0-0-------0-0------2---2----2---2-----2---2-----2---2-----0---0-------|
Db|--0---0-----0---0----0-----0--0-----0---0-----0---0-----0---2-----2------|
Ab|-2-----2---2-----2-----------------------------------------3-------------|
Eb|3-------3-3--------2--------2---------1---------1------------------------|


   Bb   Bb
  (A#) (A#)
eb|----------     ----------|
Bb|--4--4----     ----------|
Gb|-3--3-3---     ---8--8---|
Db|1--1---1--  OR --8--8-8--|
Ab|----------     -6--6---6-|
Eb|----------     ----------|

| /  slide up
| \  slide down
| h  hammer-on
| p  pull-off
| ~  vibrato
| +  harmonic
| x  Mute note
===============================================================================
Comments