Green Day - Basket Case Chords & Tabs

 

Basket Case Chords & Tabs

Green Day Chords & Tabs

Version: 4 Type: Tab 0 ratings
1 star 2 stars 3 stars 4 stars 5 stars
comments

Basket Case Tab

Green Day – Dookie - Basket Case – Track 7

By: Justin

I think that this is the correct tab for this song.  I found one tab that has the same chords as this but I added more scratches to make it sound perfect.

x - scratches
(p)-pause

RIFF # 1

E------------------------------------------------------------------------------------------------------------------------------------------------------------------------------E
B------------------------------------------------------------------------------------------------------------------------------------------------------------------------------B
G----8--8--x--x--x--x------------------------------------------------------------------------------------------------8--x--8--x--x--x--x--------------------------------G
D----8--8--x--x--x--x--8--x--8--x--x--x--x--10--10--x--x--x--x--5--x--5--x--x--x--x--6--6--x--x--x--x--8--x--8--x--x--x--x--8--8--x--x--x--8--x--8----D
A----6--6--x--x--x--x--8--x--8--x--x--x--x--10--10--x--x--x--x--5--x--5--x--x--x--x--6--6--x--x--x--x--6--x--6--x--x--x--x--8--8--x--x--x--8--x--8----A
E-------------------------6--x--6--x--x--x--x---8---8---x--x--x--x--3--x--3--x--x--x--x--4--4--x--x--x--x---------------------------6--6--x--x--x--6--x--6----E

RIFF # 2

E--------------------------------------------------------------------------------------------------------------------------------------------------------------------E
B--------------------------------------------------------------------------------------------------------------------------------------------------------------------B
G-------------------------------------------------8--x--x--x--x--x--8--x--8---------------------------------------------------8--x--x--x--x--x--8--x--8-----G
D----6--x--x--x--x--x--8--x--8--x--x--x--x--8--x--x--x--x--x--8--x--8-----6--x--x--x--x--x--8--x--8--x--x--x--x--8--x--x--x--x--x--8--x--8-----D
A----6--x--x--x--x--x--8--x--8--x--x--x--x--6--x--x--x--x--x--6--x--6-----6--x--x--x--x--x--8--x--8--x--x--x--x--6--x--x--x--x--x--6--x--6-----A
E----4--x--x--x--x--x--6--x--6--x--x--x--x------------------------------------4--x--x--x--x--x--6--x--6--x--x--x--x-------------------------------------E

E-------------------------------------------------------------------------------------------------------------------------------------E
B------------------------------------------------------------------------------------------------------------------------------------B
G--------------------------------------------------8--8--x--------------------------------------------------------------------------G
D---6--x--x--x--x--x--8--x--8--x--x--x--x----8--8--x--10--10--8--8--8--8--8---8--x--6--6--6--6--6---8--8--8--(p)---D
A---6--x--x--x--x--x--8--x--8--x--x--x--x----6--6--x--10--10--8--8--8--8--8—8--x--6--6--6--6--6—8--8--8--(p)---A
E---4--x--x--x--x--x--6--x--6--x--x--x--x----------------8----8--6--6--6--6--6—6--x--4--4--4--4--4—6--6--6--(p)---E

E----------------------------------------------------------------------------------------------E
B----------------------------------------------------------------------------------------------B
G---8--8--x------------------------------------8--8--x--------------------------------------G
D---8--8--x--8--8--x--10--10--x--8--8--x--8--8--x--8--8--x--10--10--x--8--8--x---D
A---6--6--x--8--8--x--10--10--x--8--8--x--6--6--x--8--8--x--10--10--x--8--8--x---A
E--------------6--6--x---8----8--x--6--6--x------------6--6--x---8----8--x--6--6--x---E

RIFF # 3
[ Tab from: http://www.guitartabs.cc/tabs/g/green_day/basket_case_tab_ver_4.html ]
E--------------------------------------------------------------------------------------------------------------------------------------------------------------------------E
B--------------------------------------------------------------------------------------------------------------------------------------------------------------------------B
G---8--8--8--8--8--8-------------------------------------------------------------------------------------------------8--8--8--8--8--8--------------------------------G
D---8--8--8--8--8--8--8--8--8--8--8--8--8--10--10--10--10--10--5--5--5--5--5--5--5--6--6--6--6--6--6--8--8--8--8--8--8--8--8--8--8--8--8--8--8----D
A---6--6--6--6--6--6--8--8--8--8--8--8--8--10--10--10--10--10--5--5--5--5--5--5--5--6--6--6--6--6--6--6--6--6--6--6--6--8--8--8--8--8--8--8--8----A
E-------------------------6--6--6--6--6--6--6---8---8----8---8----8--3--3--3--3--3--3--3--4--4--4--4--4--4-----------------------6--6--6--6--6--6--6--6----E

RIFF # 4

E---------------------------------------------------------------------------------------------------------------------------------------------------------------E
B---------------------------------------------------------------------------------------------------------------------------------------------------------------B
G-------------------------------------------------8--8--8--8--x--x--8--x--8-------------------------------------------------8--8--8--8--x--x--8--x--8--G
D---6--6--6--6--6--6--8--8--8--8--8--8--8--8--8--8--8--x--x--8--x--8----6--6--6--6--6--6--8--8--8--8--8--8--8--8--8--8--8--x--x--8--x--8--D
A---6--6--6--6--6--6--8--8--8--8--8--8--8--6--6--6--6--x--x--6--x--6----6--6--6--6--6--6--8--8--8--8--8--8--8--6--6--6--6--x--x--6--x--6--A
E---4--4--4--4--4--4--6--6--6--6--6--6--6------------------------------------4--4--4--4--4--4--6--6--6--6--6--6--6---------------------------------E

E----------------------------------------------------------------------------------------------------------------------------------E
B----------------------------------------------------------------------------------------------------------------------------------B
G-------------------------------------------------8--8--x-------------------------------------------------------------------------G
D---6--6--6--6--6--6--8--8--8--8--8--8--8--8--8--x--10--10--8--8--8--8--8--8--x--6--6--6--6--6--8--8--8—(p)----D
A---6--6--6--6--6--6--8--8--8--8--8--8--8--6--6--x--10--10--8--8--8--8--8--8--x--6--6--6--6--6--8--8--8---(p)----A
E---4--4--4--4--4--4--6--6--6--6--6--6--6--------------8---8---6--6--6--6--6--6--x--4--4--4--4--4--6--6--6---(p)----E

RIFF # 5

E------------------------------------------------------------------------------------------------E
B------------------------------------------------------------------------------------------------B
G---8--8--x------------------------------------8--8--x----------------------------------------G
D---8--8--x--8--8--x--10--10--x--8--8--x--8--8--x--8--8--x--10--10--x--8--8--x-----D
A---6--6--x--8--8--x--10--10--x--8--8--x--6--6--x--8--8--x--10--10--x--8--8--x-----A
E--------------6--6--x---8---8---x--6--6--x------------6--6--x---8---8---x--6--6---x----E

RIFF # 6

E--------------------------------------------------------------------------------------E
B--------------------------------------------------------------------------------------B
G--------------------------------------------------------------------------------------G
D--6--6--6--6--6--6--6--6--6--6--6--6---6--6----8--8--8--8--8--8--8--8------D
A--6--6--6--6--6--6--6--6--6--6--6--6---6--6----8--8--8--8--8--8--8--8------A
E--4--4--4--4--4--4--4--4--4--4--4--4—4--4----6--6--6--6--6--6--6--6-------E

RIFF # 7

E---------------------------------------------------------------------------------------------------E
B---------------------------------------------------------------------------------------------------B
G----8--8--8--8--8--8------------------------------------------8--8-----------------------------G
D----8--8--8--8--8--8--10--10--10--10--10--10--6--6--x--8--8--8--8--8--8--8--8--8----D
A----6--6--6--6--6--6--10--10--10--10--10--10--6--6--x--6--6--8--8--8--8--8--8--8----A
E---------------------------8---8----8---8---8----8--4--4--x---------6--6--6--6--6--6--6----E

RIFF # 8

E----------------------------------------------------------------------------------------------------------E
B----------------------------------------------------------------------------------------------------------B
G---8--8--8--8--x------------------------------------------8--8----------------------------------------G
D---8--8--8--8--x--10--10--10--10--10--10--6--6--x--8--8--8--8--8--8--8--8--8---6--3--8----D
A---6--6--6--6--x--10--10--10--10--10--10--6--6--x--6--6--8--8--8--8--8--8--8---6--3--8----A
E----------------------8---8----8----8---8---8---4--4--x---------6--6--6--6--6--6--6---4--1--6----E



RIFF # 1- x2
RIFF # 2- x1
RIFF # 3- x2
RIFF # 4- x1
RIFF # 5- x2
RIFF # 6- x1
RIFF # 7- x3
RIFF # 8- x1

That’s it.  Have at it and have fun, I do.

For questions and comments email me at Brainstew212@hotmail.com (please specify that you have a question in the subject to be                         
Comments