Green Day - Basket Case Chords & Tabs

 

Basket Case Chords & Tabs

Green Day Chords & Tabs

Version: 2 Type: Tab 19 ratings
1 star 2 stars 3 stars 4 stars 5 stars
comments

Basket Case Tab

Artist: Green Day
Song: Basket Case

E--------------------------------------------------------------------------------------------------------------- 
B---------------------------------------------------------------------------------------------------------------  
G--9-9-9-9-9-9-9---------------6-6-6-6-6-6-6-----------------------------9-9-9-9-9-9-9--------------------------   
D--9-9-9-9-9-9-9-9-9-9-9-9-9-9-6-6-6-6-6-6-6-6-6-6-6-6-6-6-7-7-7-7-7-7-7-9-9-9-9-9-9-9-9-9-9-9-9-9-9-9-9-9-9-9-9   Repeat 2x
A--7-7-7-7-7-7-7-9-9-9-9-9-9-9-4-4-4-4-4-4-4-6-6-6-6-6-6-6-7-7-7-7-7-7-7-7-7-7-7-7-7-7-9-9-9-9-9-9-9-9-9-9-9-9-9    
E----------------7-7-7-7-7-7-7---------------4-4-4-4-4-4-4-5-5-5-5-5-5-5---------------7-7-7-7-7-7-7-7-7-7-7-7-7  
pm:   ............       . .     .    .    ............       .  .    .    .     . .     .    .    .  .    .     .    .     ... . .  .. . ..  ..   . 
    
E----------------------------------------------------- 
B-----------------------------------------------------  
G--------------------------9-9-9-9-9-9-9-9-9-9-9-9-9-9    Repeat 2x
D--7-7-7-7-7-7-9-9-9-9-9-9-9-9-9-9-9-9-9-9-9-9-9-9-9-9        
A--7-7-7-7-7-7-9-9-9-9-9-9-7-7-7-7-7-7-7-7-7-7-7-7-7-7              
E--5-5-5-5-5-5-7-7-7-7-7-7----------------------------             
pm:   .  .    .       .  .    .       . . . .  . ... . . . .. . . . . .                          
                                                                                                
E---------------------------------------------------------------------
B---------------------------------------------------------------------
G--------------------------9-9-9-8-8-8-6-6-6--------------------------
D--7-7-7-7-7-7-9-9-9-9-9-9-9-9-9-8-8-8-6-6-6---7-7-7-7-7-7-9-9-9-9-9-9
A--7-7-7-7-7-7-9-9-9-9-9-9-7-7-7-6-6-6-4-4-4---7-7-7-7-7-7-9-9-9-9-9-9
E--5-5-5-5-5-5-7-7-7-7-7-7---------------------5-5-5-5-5-5-7-7-7-7-7-7
pm:   .  .    .       .  .    .

E------------------------- 
B-------------------------  
G--9-9-9-------6-6-6------   
D--9-9-9-9-9-9-6-6-6-6-6-6     2x
A--7-7-7-9-9-9-4-4-4-6-6-6  
E--------7-7-7-------4-4-4 

E--------------------------------------------------------------------------------------------------------------- 
B---------------------------------------------------------------------------------------------------------------  
G--9-9-9-9-9-9-9---------------6-6-6-6-6-6-6-----------------------------9-9-9-9-9-9-9--------------------------   
D--9-9-9-9-9-9-9-9-9-9-9-9-9-9-6-6-6-6-6-6-6-6-6-6-6-6-6-6-7-7-7-7-7-7-7-9-9-9-9-9-9-9-9-9-9-9-9-9-9-9-9-9-9-9-9     2x
A--7-7-7-7-7-7-7-9-9-9-9-9-9-9-4-4-4-4-4-4-4-6-6-6-6-6-6-6-7-7-7-7-7-7-7-7-7-7-7-7-7-7-9-9-9-9-9-9-9-9-9-9-9-9-9  
E----------------7-7-7-7-7-7-7---------------4-4-4-4-4-4-4-5-5-5-5-5-5-5---------------7-7-7-7-7-7-7-7-7-7-7-7-7 
[ Tab from: http://www.guitartabs.cc/tabs/g/green_day/basket_case_tab_ver_2.html ]
E---------------------------------------------
B---------------------------------------------
G----------------------------9-9-9-9-9-9-9-9-9
D--7-7-7-7-7-7-9-9-9-9-9-9-9-9-9-9-9-9-9-9-9-9    2x
A--7-7-7-7-7-7-9-9-9-9-9-9-7-7-7-7-7-7-7-7-7-7                   
E--5-5-5-5-5-5-7-7-7-7-7-7--------------------                         
E---------------------------------------------------------------------
B---------------------------------------------------------------------
G--------------------------9-9-9-8-8-8-6-6-6--------------------------
D--7-7-7-7-7-7-9-9-9-9-9-9-9-9-9-8-8-8-6-6-6---7-7-7-7-7-7-9-9-9-9-9-9
A--7-7-7-7-7-7-9-9-9-9-9-9-7-7-7-6-6-6-4-4-4---7-7-7-7-7-7-9-9-9-9-9-9
E--5-5-5-5-5-5-7-7-7-7-7-7---------------------5-5-5-5-5-5-7-7-7-7-7-7


E------------------------- 
B-------------------------  
G--9-9-9-------6-6-6------   
D--9-9-9-9-9-9-6-6-6-6-6-6     4x
A--7-7-7-9-9-9-4-4-4-6-6-6  
E--------7-7-7-------4-4-4 

E-------------------------------
B-------------------------------
G-------------------------------
D--7-7-7-7-7-7-7-7-7-9-9-9-9-9-9
A--7-7-7-7-7-7-7-7-7-9-9-9-9-9-9
E--5-5-5-5-5-5-5-5-5-7-7-7-7-7-7
pm:   ............

E------------------------------------------------------------------------------------------------------------  
B------------------------------------------------------------------------------------------------------------    
G--9--9-9-9-9-9-9----------------6--6-6-6-6-6-6-------------------------------9--9-9-9-9-9-9-----------------       2x
D--9--9-9-9-9-9-9-9--9-9-9-9-9-9-6--6-6-6-6-6-6-6--6-6-6-6-6-6-7--7-7-7-7-7-7-9--9-9-9-9-9-9-9--9-9-9-9-9-9-9     
A--7--7-7-7-7-7-7-9--9-9-9-9-9-9-4--4-4-4-4-4-4-6--6-6-6-6-6-6-7--7-7-7-7-7-7-7--7-7-7-7-7-7-9--9-9-9-9-9-9-9   
E-----------------7--7-7-7-7-7-7----------------4--4-4-4-4-4-4-5--5-5-5-5-5-5----------------7--7-7-7-7-7-7-7  


E----------------------------------------------------- 
B-----------------------------------------------------  
G--------------------------9-9-9-9-9-9-9-9-9-9-9-9-9-9    Repeat 2x
D--7-7-7-7-7-7-9-9-9-9-9-9-9-9-9-9-9-9-9-9-9-9-9-9-9-9                 
A--7-7-7-7-7-7-9-9-9-9-9-9-7-7-7-7-7-7-7-7-7-7-7-7-7-7                          
E--5-5-5-5-5-5-7-7-7-7-7-7----------------------------                         
pm:   .  .    .       .  .    .       . . . .  . ... . . . .. . . . . .                         
                                                                                               
E---------------------------------------------------------------------
B---------------------------------------------------------------------
G--------------------------9-9-9-8-8-8-6-6-6--------------------------
D--7-7-7-7-7-7-9-9-9-9-9-9-9-9-9-8-8-8-6-6-6---7-7-7-7-7-7-9-9-9-9-9-9
A--7-7-7-7-7-7-9-9-9-9-9-9-7-7-7-6-6-6-4-4-4---7-7-7-7-7-7-9-9-9-9-9-9
E--5-5-5-5-5-5-7-7-7-7-7-7---------------------5-5-5-5-5-5-7-7-7-7-7-7
pm:   .  .    .       .  .    .

E----------------------------------------------------|----------------------------------------------------------
B----------------------------------------------------|----------------------------------------------------------
G--9--9-9-9-9-9-9-6--6-6-6-6-6-6-------9-9-9------3x-|---9--9-9-9-9-9-9-6--6-6-6-6-6-6-------9-9-9-------------9
D--9--9-9-9-9-9-9-6--6-6-6-6-6-6-7-7-7-9-9-9-9-------|---9--9-9-9-9-9-9-6--6-6-6-6-6-6-7-7-7-9-9-9-9-------9-7-9
A--7--7-7-7-7-7-7-4--4-4-4-4-4-4-7-7-7-7-7-7-9-------|---7--7-7-7-7-7-7-4--4-4-4-4-4-4-7-7-7-7-7-7-9-------9-7-7
E--------------------------------5-5-5-------7-------|---------------------------------5-5-5-------7-------7-5--

AIM: BMxA63N7xMB
Comments