Green Day - Basket Case Chords & Tabs

 

Basket Case Chords & Tabs

Green Day Chords & Tabs

Version: 11 Type: Tab 0 ratings
1 star 2 stars 3 stars 4 stars 5 stars
comments

Basket Case Tab

   
note- when playing a green day song, to get correct sound tune down 1/2 step
/ or \=slide for better sound

[verse]
   E5          B5          C#5         G#5         A5          E5
1-|-----------|-----------|-----------|-----------|-----------|-----------|
2-|5-5-5-5-5-5|-----------|-----------|-----------|-----------|-----------|
3-|4-4-4-4-4-4|4-4-4-4-4-4|6-6-6-6-6-6|-----------|-----------|9-9-9-9-9-9|
4-|2-2-2-2-2-2|4-4-4-4-4-4|6-6-6-6-6-6|6-6-6-6-6-6|7-7-7-7-7-7|9-9-9-9-9-9|
5-|-----------|2-2-2-2-2-2|4-4-4-4-4-4|6-6-6-6-6-6|7-7-7-7-7-7|7-7-7-7-7-7|
6-|-----------|-----------|-----------|4-4-4-4-4-4|5-5-5-5-5-5|-----------|
   Do you...
[verse continued]
   B5          B5
1-|-----------|-----------| ||
2-|-----------|-----------| ||
3-|-----------|-----------|.||
4-|9-9-9-9-9-9|9-9-9-9-9-9|.|| <(repeat)
5-|9-9-9-9-9-9|9-9-9-9-9-9| ||
6-|7-7-7-7-7-7|7-7-7-7-7-7| ||  
[ Tab from: http://www.guitartabs.cc/tabs/g/green_day/basket_case_tab_ver_11.html ]
[chorus]
   A5          B5          E5          E5
1-|-----------|-----------|-----------|-----------| ||
2-|-----------|-----------|-----------|-----------| ||
3-|-----------|-----------|9-9-9-9-9-9|9-9-9-9-9-9|.||
4-|7-7-7-7-7-7|9-9-9-9-9-9|9-9-9-9-9-9|9-9-9-9-9-9|.|| <(repeat)
5-|7-7-7-7-7-7|9-9-9-9-9-9|7-7-7-7-7-7|7-7-7-7-7-7| ||
6-|5-5-5-5-5-5|7-7-7-7-7-7|-----------|-----------| ||
   sometimes...
   A5          B5          E5    B5    C#5
1-|-----------|-----------|-----------|------------|
2-|-----------|-----------|-----------|------------|
3-|-----------|-----------|9-9-9------|6--6-6-6-6-6|
4-|7-7-7-7-7-7|9-9-9-9-9-9|9-9-9-9-9-9|6--6-6-6-6-6|
5-|7-7-7-7-7-7|9-9-9-9-9-9|7-7-7-9-9-9|4--4-4-4-4-4|
6-|5-5-5-5-5-5|7-7-7-7-7-7|------7-7-7|------------|
   It all..
   A5          B5          
1-|-----------|-----------|
2-|-----------|-----------|
3-|2--2--2--2-|4-4-4-4-4-4|
4-|2--2--2--2-|4-4-4-4-4-4|
5-|0--0--0--0-|2-2-2-2-2-2|
6-|-----------|-----------|
   Am I...
[bridge]
   E5    B5    C#5   B5
1-|-----------|-----------| ||
2-|5-5-5------|-----------| ||
3-|4-4-4-4-4-4/6-6-6-4-4-4|.||
4-|2-2-2-4-4-4/6-6-6-4-4-4|.|| <(repeat) 
5-|------2-2-2/4-4-4-2-2-2| ||repeat bridge again second time through
6-|-----------|-----------| ||  

^ repeat everything ^


   A5          B5          B5
1-|-----------|-----------|-----------|
2-|-----------|-----------|-----------|
3-|-----------|-----------|-----------|
4-|7-7-7-7-7-7|9-9-9-9-9-9|9-9-9-9-9--|
5-|7-7-7-7-7-7|9-9-9-9-9-9|9-9-9-9-9--|
6-|5-5-5-5-5-5|7-7-7-7-7-7|7-7-7-7-7--|
   Grasping...
repeat verse, then chorus, then go to outro:
  E   add11  Cm  C#m6              A5  E5  B5  B5
1-|0-0-0-0-0-0|-----------|       |-----------|-----------|
2-|0-0-0-0-0-0|-----------|       |-----------|-----------|
3-|1-1-1-2-2-1|-----------||7---9---9-9|9-9-9-9-9-9|play 4 times
5-|2-2-2-2-2-2|4-4-4-4-4-4|       |7---7---9-9|9-9-9-9-9-9|
6-|0-0-0-0-0-0|-----------|       |5-------7-7|7-7-7-7-7-7| 

on fourth time play riff below instead of riff 2
   A5   E5  B5 A5   E5  B5
1-|-----------|-----------|
2-|-----------|-----------|
3-|-----9-----|-----9-----|
4-|7----9----9|7----9----9|
5-|7----7----9|7----7----9|
6-|5---------7|5---------7|

i hope its not to confusing
Comments