Green Day - At The Library Chords & Tabs

 

At The Library Chords & Tabs

Green Day Chords & Tabs

Version: 3 Type: Tab 0 ratings
1 star 2 stars 3 stars 4 stars 5 stars
comments

At The Library Tab

standard tuning

*=harmonics
|=palm mute


(intro)
   
E-------------------------------------------------------
B--|-|----|-|----|-|----|-|----|-|----|-|---------------
G--7-7-7--5-5-5--7-7-7--5-5-5--7-7-7--5-5-5--4-4-4-4-4--
D--7-7-7--5-5-5--7-7-7--5-5-5--7-7-7--5-5-5--4-4-4-4-4--
A--5-5-5--3-3-3--5-5-5--3-3-3--5-5-5--3-3-3--2-2-2-2-2--
E-------------------------------------------------------
[ Tab from: http://www.guitartabs.cc/tabs/g/green_day/at_the_library_tab_ver_3.html ]
E-------------------------------------------------------
B--|-|----|-|----|-|----|-|----|-|----|-|---------------
G--7-7-7--5-5-5--7-7-7--5-5-5--7-7-7--5-5-5--4-4-4-4-4--
D--7-7-7--5-5-5--7-7-7--5-5-5--7-7-7--5-5-5--4-4-4-4-4--
A--5-5-5--3-3-3--5-5-5--3-3-3--5-5-5--3-3-3--2-2-2-2-2--
E-------------------------------------------------------

E-----------------------------
B-----------------------------
G-------------4-----5------7--
D-------5---4-----5------7----  <- Repeat 4x's
A-----5---2-----3-----5-------
E--3--------------------------

           *   *
E------*---7-*-7---*---*------
B--*---7-*---7---*-7-*-7-*-*--
G--7-*---7-------7---7---7-7--
D----7------------------------
A-----------------------------
E-----------------------------

(verse)
E--------------------------------
B--------------------------------
G---------4-4-4-5-5-5-5-5-7-7-7--
D--5--5-5-4-4-4-5-5-5-5-5-7-7-7--
A--5--5-5-2-2-2-3-3-3-3-3-5-5-5--
E--3--3-3------------------------
Comments