Green Day - At The Library Chords & Tabs

 

At The Library Chords & Tabs

Green Day Chords & Tabs

Version: 2 Type: Tab 0 ratings
1 star 2 stars 3 stars 4 stars 5 stars
comments

At The Library Tab

green day
at the library
39/smooth
tune 1/2 step down/tune to flats

opening:
-----------------------------------------------------------
-----------------------------------------------------------
-------------------------------------------------4-4-4-4-4
-4-4-4---5-5-5---4-4-4---5-5-5---4-4-4---5-5-5---4-4-4-4-4-
-5-5-5-0-3-3-3-0-5-5-5-0-3-3-3-0-5-5-5-0-3-3-3-0-2-2-2-2-2-
-----------------------------------------------------------
|-------------palm mute-------------------------|

verse/second opening:
---------------------------------
-------0-------0-------0-------0-
-------------4-------5-------7---
-----5---2-2-----3-3-----5-5-----
-3-3-----------------------------x2
hold all possible
[ Tab from: http://www.guitartabs.cc/tabs/g/green_day/at_the_library_tab_ver_2.html ]
fill:
-----7---5---7-----------5-----
-7-----7---7-----------7---7-7-
---7-----------7-5---5---------
-------------------5-----------
-------------------------------
-------------------------------
|-harmonicas-------------------|

verse/second opening | repeat as needed

chorus (pattern):
----2-----2-----2-------------
----3-----3-----3-------------
-1--2--1--2--1--2--5--------0-
-2--0--2--0--2--0--5------7---
-2-----2-----2-----3--5-5-----
-0-----0-----0----------------
                     |--hold-|

verse/second opening | repeat as needed

chorus

bridge:
--------3---
--------3---
--------0---
--------0---
-starts-0---
--with--3-?-

why did u have to leave so soon:
----------
----------
----------
-2--------
-2--------
-0-etc----
P.M.------|

verse/second opening

mixture of opening and fill

Comments