Green Day - At The Library Chords & Tabs

 

At The Library Chords & Tabs

Green Day Chords & Tabs

Version: 1 Type: Tab 3 ratings
1 star 2 stars 3 stars 4 stars 5 stars
comments

At The Library Tab

   
Tabbed by:sam champness 
Email:
green day
Tuning:Eadgbe

Intro
e|-----------------------------------------------------------------|-->
B|-----------------------------------------------------------------|-->
G|7-7-7---5-5-5---7-7-7---5-5-5---7-7-7---5-5-5---4-4-4-4-4-4-4----|-->
D|7-7-7-\-5-5-5-/-7-7-7-\-5-5-5-/-7-7-7-\-5-5-5-\-4-4-4-4-4-4-4----|-->
A|5-5-5-\-3-3-3-/-5-5-5-\-3-3-3-/-5-5-5-\-3-3-3-\-2-2-2-2-2-2-2----|-->
E|--------------------------------------------------------------x2-|-->

e|----------------------------------7-7-------------------|
B|---------------------------------7-7---7-7-7------------|
G|-----0-4-4--0-5-5--0-7-7--0-----7-7---7--7-7-7-7--------|
D|5-5-0--4-4-0--5-5-0--7-7-0--------7---------------------|
A|5-5----2-2----3-3----5-5--------------------------------|
E|3-3------------------------x4---------------------------|

verse
e|--------------------------------|
B|--------------------------------|
G|-----0-4-4--0-5-5--0-7-7--0-----|
D|5-5-0--4-4-0--5-5-0--7-7-0------|
A|5-5----2-2----3-3----5-5--------|
E|3-3--------------------------x8-|

Chorus
e|-------------------------------------------------------------------------|
B|-------------------------------------------------------------------------|
G|---------7-7-7-7-----------7-7-7-7-----------7-7-7-7--5-5-5-5--7-7-7-7---|
D|2-2-2-2--7-7-7-7--2-2-2-2--7-7-7-7--2-2-2-2--7-7-7-7--5-5-5-5--7-7-7-7---|
A|2-2-2-2--5-5-5-5--2-2-2-2--5-5-5-5--2-2-2-2--5-5-5-5--3-3-3-3--5-5-5-5---|
E|0-0-0-0-----------0-0-0-0-----------0-0-0-0------------------------------|
[ Tab from: http://www.guitartabs.cc/tabs/g/green_day/at_the_library_tab.html ]
Bridge
E|-----------3--|--------------------3||
B|-3-3-------3--|-3--3--3----3--3-3---||
G|-0-0-0-0---3--|-0--0--0----0--0-0---||
D|-0-0-0-0------|-0--0--0----0--0-0---||
A|-x-x-x-x------|-x--x--x----x--x-x---||
E|-3-3-3-3------|-3--3--3----3--3-3---||


(the 10 is a ten not a 1 and 0)
E|-7-8-8-10-10--10--10-|10-8-8--7-7-------------------||
B|-8-8-8-8--8----8--8--|8--8-8--8-8-------------------||
G|-7-7-7-7--7----7--7--|7--7-7--7-7------7\--14-------||
D|-0-0-0-0--0----0--0--|0--0-0--0-0--------------0--0-||
A|---------------------|------0---0-------------------||
E|---------------------|------------------------------||

E|-8-8---7-7--8-|-10-10---8--7----|3-3-3-3-3-3--||
B|-8-8---8-8--8-|-8--8----8--8----|3-3-3-3-3-3--||
G|-7-7---7-7--7-|-7--7----7--7----|0-0-0-0-0-0--||
D|-0-0---0-0--0-|-0--0----0--0----|0-0-0-0-0-0--||
A|--------------|-----------------|x-x-x-x-x-x--||
E|--------------|-----------------|3-3-3-3-3-3--||

e|----------3-3------------3-3||----------------------------||
B|---3------3-3------3-----3-3||----------------------------||
G|----------------------------||------------------7-7-7-7---||
D|----x--------x-------x------||-5-5-5-5-5-5-5-5--7-7-7-7---||
A|----x--------x-------x------||-5-5-5-5-5-5-5-5--5-5-5-5---||
E|3-3---3-3-----3-3----33-----||-3-3-3-3-3-3-3-3------------||


ending
e|----------------------------------------7--7-------|
B|--------------------------------------7--7---------|
G|7-7-\-5-5-/-7-7---5-5---7-7---5-5---7--7----7--7---|
D|7-7-\-5-5-/-7-7-\-5-5-/-7-7-\-5-5----7---------7---|
A|5-5-\-3-3-/-5-5-\-3-3-/-5-5-\-3-3--------------5---|
E|---------------------------------------------------|

HOPE YOU ENJOY!!! PLEASE RATE IT NEVER TABBED THIS BEFORE

| /  slide up
| \  slide down
| h  hammer-on
| p  pull-off
| ~  vibrato
| +  harmonic
| x  Mute note
=============================================================================
Comments