Green Day - Armatage Shanks Chords & Tabs

 

Armatage Shanks Chords & Tabs

Green Day Chords & Tabs

Version: 1 Type: Tab 0 ratings
1 star 2 stars 3 stars 4 stars 5 stars
comments

Armatage Shanks Tab

   
This is Armatage Shanks by Green Day. This is one of my favorite GD 
Songs.. Next to Having a Blast and Brat Tabbed By B. Durr

intro times 4
     e5
eb--------------------
bb--------------------
gb-9-9-9-9------------
db-9-9-9-9------------
ab-7-7-7-7------------
eb--------------------


[ Tab from: http://www.guitartabs.cc/tabs/g/green_day/armatage_shanks_tab.html ]
verse x2 Didn't tab strums
 a5 d5    a5 d5 f#5d5 e5 
------------------------------
------------------------------
---7---------7-----7----------
-7-7-------7-7--4--7--2-------
-7-5-------7-5--4--5--2-------
-5---------5----2-----0-------


Chorus didn't tab strums
d5 a5  e5  a5 d5 a5 e5 
--------------------------
--------------------------
-7------------7-----9-----
-7--7---2--7--7--7--9-----
-5--7---2--7--5--7--7-----
----5---0--5-----5--------


Bridge x2 
Didn't Tab strums

------------------
------------------
-------7---9------
-7--4--7---9------
-7--4--5---7------
-5--2-------------



order

intro
verse
chorus
verse
chorus
bridge
verse
chorusx2
Comments