Green Day - Are We The Waiting Chords & Tabs

 

Are We The Waiting Chords & Tabs

Green Day Chords & Tabs

Version: 2 Type: Tab 0 ratings
1 star 2 stars 3 stars 4 stars 5 stars
comments

Are We The Waiting Tab

This album is their best yet! It's so addictive I love it sooooooo much!

any questions reizig@gmail.com


Tuning: Standard

Intro:
---------------------------------2-----------2-------|
-------2-----------2-----------3---3-------3---3-----|
-----2---2-------2---2-------2-------2---2-------2---|
---2-------2---2-------2---0-----------0-------------|
-0-----------0---------------------------------------|
-----------------------------------------------------|

Verse:
---------------------------------2-----------2-------R
-------2-----------2-----------3---3-------3---3-----E
-----2---2-------2---2-------2-------2---2-------2---P
---2-------2---2-------2---0-----------0-------------E x3
-0-----------0---------------------------------------A
-----------------------------------------------------T

Pre-Chorus:
(This dirty town, is burnin\' down, in my dreams)          
------------------------------------------------------------R
---------11---------------8------/7-----7-----------7-------E
------10----10----------9---9----/7---7---7-------7---7-----P
---10----------10-----9-------9-----7-------7---7-------7---E x2
-9------------------7-------------------------5-------------A
------------------------------------------------------------T
[ Tab from: http://www.guitartabs.cc/tabs/g/green_day/are_we_the_waiting_tab_ver_2.html ]
Chorus:
---------------------------------2-----------2-------R
-------2-----------2-----------3---3-------3---3-----E
-----2---2-------2---2-------2-------2---2-------2---P
---2-------2---2-------2---0-----------0-------------E x2
-0-----------0---------------------------------------A
-----------------------------------------------------T

Verse:
---------------------------------2-----------2-------R
-------2-----------2-----------3---3-------3---3-----E
-----2---2-------2---2-------2-------2---2-------2---P
---2-------2---2-------2---0-----------0-------------E x3
-0-----------0---------------------------------------A
-----------------------------------------------------T

Pre-Chorus:
             
------------------------------------------------------------R
---------11---------------8------/7-----7-----------7-------E
------10----10----------9---9----/7---7---7-------7---7-----P
---10----------10-----9-------9-----7-------7---7-------7---E x2
-9------------------7-------------------------5-------------A
------------------------------------------------------------T

Outro:
---------------------------------2-----------2-------R
-------2-----------2-----------3---3-------3---3-----E
-----2---2-------2---2-------2-------2---2-------2---P
---2-------2---2-------2---0-----------0-------------E x5
-0-----------0---------------------------------------A
-----------------------------------------------------T
Comments