Green Day - Are We The Waiting Chords & Tabs

 

Are We The Waiting Chords & Tabs

Green Day Chords & Tabs

Version: 1 Type: Tab 1 rating
1 star 2 stars 3 stars 4 stars 5 stars
comments

Are We The Waiting Tab

   
Artist: Green Day
Song: Are We The Waiting [Track 5]
Album: American Idiot [2004]
Tabs By: Jonathon Knodle [noodleman5@msn.com]

Tuning: Standard [e B G D A e]

Verse:
         A            A             D             D
E|----------------------------------------------------------|
B|-------2------------2-------------7-------------7---------|
G|-----2---2--------2---2---------7---7---------7---7-------|
D|---2-------2----2-------2-----7-------7-----7-------7-----|
A|-0----------0-0-----------0-5-----------5-5-----------5---|
E|----------------------------------------------------------|
[ Tab from: http://www.guitartabs.cc/tabs/g/green_day/are_we_the_waiting_tab.html ]
Chorus:   
           F#                e              D              D
E|-----------------------------------------------------------------|
B|---------11----------------9--------------7--------------7-------|
G|------11----11-----------9---9----------7---7----------7---7-----|
D|---11----------11------9-------9------7-------7------7-------7---|
A|-9-------------------7--------------5--------------5-------------|
E|-----------------------------------------------------------------|

Order:
1. Verse (x4)
2. Chorus (x2)
3. Verse (x2)
4. Verse (x4)
5. Chorus (x2)
6. Verse (x5)

If you have any questions or comments, please e-mail me at the e-mail address above.  Thank you.


Comments