Green Day - American Idiot Chords & Tabs

 

American Idiot Chords & Tabs

Green Day Chords & Tabs

Version: 3 Type: Tab 2 ratings
1 star 2 stars 3 stars 4 stars 5 stars
comments

American Idiot Tab

Intro: (Guitar 1 w/ EQ Filter Effect)
E|-x----x----x----x----x----x---|
B|-x----x----x----x----x----x---|
G|-x----6----x----6----x----x---| (x2)
D|-6----6----4----6----6----4---|
A|-6----4----4----4----6----4---|
E|-4----x----2----x----4----2---|

Verse: (Guitar 1 & 2 w/ distortion)
E|-x----x----x----x----x----x---|
B|-x----x----x----x----x----x---|
G|-x----6----x----6----x----x---| (x4)
D|-6----6----4----6----6----4---|
A|-6----4----4----4----6----4---|
E|-4----x----2----x----4----2---|

Chorus: (Guitar 1 & 2 w/ distortion)
E|-x----x----x----x----x----x----x---|
B|-x----x----x----x----x----x----x---|
G|-6----x----8----x----6----x----8---| (x1)
D|-6----6----8----6----6----6----8---|
A|-4----6----6----6----4----6----6---|
E|-x----4----x----4----x----4----x---|

Guitar Solo:
[Guitar 1]
E|-x----x----x----x----x----x----x---|
B|-x----x----x----x----x----x----x---|
G|-6----x----8----x----6----x----8---| (x1)
D|-6----6----8----6----6----6----8---|
A|-4----6----6----6----4----6----6---|
E|-x----4----x----4----x----4----x---|

[Guitar 2]
E|-----------------------------------------------------------------------------|
B|-----------------------------------------------------------------------------|
G|------------------------------33333-5-6-(6)-5—33333/8------------------------|
D|-----------------------------------------------------------------------------|
A|-8888888-66-4--66666-8-6-4-3-------------------------------------------------|
E|-----------------------------------------------------------------------------|
[ Tab from: http://www.guitartabs.cc/tabs/g/green_day/american_idiot_tab_ver_3.html ]
E|-----------------------8-----------------------------------------------------|
B|------9-------11---------------11-----9--(9)---------------------------------|
G|-8-8-----8-8------8-8-----8-8------8-----------------------------------------|
D|-----------------------------------------------------------------------------|
A|----------------------------------------------8888888-66-4--66666-8-6-4-3----|
E|-----------------------------------------------------------------------------|

E|-------------------------------------------------0--------0-----------|
B|-------------------------------9--------9--------0--------0-----------|
G|-33333-5-6-(6)-5--3-(3)/8-8----------------------0--------0-----------|
D|-------------------------------------------------0--------0-----------|
A|----------------------------------------------------------------------|
E|----------------------------------------------------------------------|

(Guitar 1 w/ EQ Filter Effect)
E|-x----x----x----x----x----x---|
B|-x----x----x----x----x----x---|
G|-x----6----x----6----x----x---| (x1)
D|-6----6----4----6----6----4---|
A|-6----4----4----4----6----4---|
E|-4----x----2----x----4----2---|

Ending: (Guitar 1 & 2 w/ distortion)
E|-x----x----x----x----x---|
B|-x----x----x----x----x---|
G|-x----6----x----6----x---| (x2)
D|-6----6----4----6----6---|
A|-6----4----4----4----6---|
E|-4----x----2----x----4---|

(Guitar 1 w/ EQ Filter Effect)
E|-x----x----x----x----x----x---|
B|-x----x----x----x----x----x---|
G|-x----6----x----6----x----x---| (x1)
D|-6----6----4----6----6----4---|
A|-6----4----4----4----6----4---|
E|-4----x----2----x----4----2---|

Comments