Green Day - American Idiot Chords & Tabs

 

American Idiot Chords & Tabs

Green Day Chords & Tabs

Version: 12 Type: Tab 0 ratings
1 star 2 stars 3 stars 4 stars 5 stars
comments

American Idiot Tab

   
Green Day - American Idiot
Off the new album 'American Idiot'
Music by Billie Joe Armstrong
Tabbed by Glenn Murphy

Tuning - Standard E A D G B E


Intro/Verse

e-----------------------|
B-----------------------|
G-------666----6--------|
D---666-666-44-6-6-4----|
A---666-444-44-4-6-4----|
E---444-----22---4-2----|

Chorus

e---------------------------------------|
B---------------------------------------|
G--66666666----------88888888-----------|
D--66666666-66666666-88888888-66666666--|
A--44444444-66666666-66666666-66666666--|
E-----------44444444----------44444444--|

Guitar Solo Part 1

I'm 95% sure this is the correct way to play the solo, most people have tabbed the
fast bit in the wrong place or with the wrong notes, if you play along with the
record, you should see this is the correct way to play it..
[ Tab from: http://www.guitartabs.cc/tabs/g/green_day/american_idiot_tab_ver_12.html ]
e -------------------------------------------------------------8---------|
A ----------------------------------------------------9---11-------11-9--|
G --------------------------------------------------88--88---88-88-------|
D ---------------------------------888888-11-10-8-6----------------------|
A -888888888888-6-4-666666-8-6-4-3---------------------------------------|
E -----------------------------------------------------------------------|

Guitar Solo Part 2

e ----------------------------------------------------------|
A ----------------------------------------------------------|
G -------------------------------------------------8/13~~~--|
D --------------------------------888888-11-10-8-6----------|
A -88888888888-6-4-666666-8-6-4-3---------------------------|
E ----------------------------------------------------------|

Outro

e-----------------------|
B-----------------------|
G-------666----6--------|
D---666-666-44-6-6-4----|
A---666-444-44-4-6-4----|
E---444-----22---4-2----|

End On

E ----
A ----
G ----
D -6--
A -6--
E -4--
Comments