Green Day - American Idiot Chords & Tabs

 

American Idiot Chords & Tabs

Green Day Chords & Tabs

Version: 1 Type: Tab 52 ratings
1 star 2 stars 3 stars 4 stars 5 stars
comments

American Idiot Tab

   
American Idiot
Music: Green Day
Album: American Idiot (2004)
Tab By: reizig (reizig@hotmail.com)

Standard Tuning (E A D G B E)

Intro/Verse:
   G#5  C#5  F#5  C#5 G#5 F#5
e|----------------------------------|
B|----------------------------------|
G|------6---------6-----------------|
D|-6----6----4----6---6---4---------|
A|-6----4----4----4---6---4---------|
E|-4---------2--------4---2---------|

Chorus:
   C#5  G#5  D#5  G#5
e|----------------------------------|
B|----------------------------------|
G|-6---------8----------------------|
D|-6----6----8----6-----------------|
A|-4----6----6----6-----------------|
E|------4---------4-----------------|

   C#5  G#5  D#5  
e|----------------------------------|
B|----------------------------------|
G|-6---------8----------------------|
D|-6----6----8----------------------|
A|-4----6----6----------------------|
E|------4---------------------------|


Solo:

e|---------------------------------------------------------------|
B|---------------------------------------------------------------|
G|--10-10-10-10-10-10-10-10-8-6---8-8-8-8-8h10-8-6-5-------------|
D|---------------------------------------------------------------|
A|---------------------------------------------------------------|
E|---------------------------------------------------------------|
[ Tab from: http://www.guitartabs.cc/tabs/g/green_day/american_idiot_tab.html ]
e|---------------------------------------------------------------|
B|--------------------------11--13--11---------------------------|
G|-------------6-5-3----13--------------13-----------------------|
D|--8-8-8-8-8---------11--11--11--11--11-------------------------|
A|---------------------------------------------------------------|
E|---------------------------------------------------------------|

e|---------------------------------------------------------------|
B|---------------------------------------------------------------|
G|--10-10-10-10-10-10-10-10-8-6---8-8-8-8-8h10-8-6-5-------------|
D|---------------------------------------------------------------|
A|---------------------------------------------------------------|
E|---------------------------------------------------------------|

e|---------------------------------------------------------------|
B|---------------------------------------------------------------|
G|-------------6-5-3-1/13v---------------------------------------|
D|--8-8-8-8-8----------------------------------------------------|
A|---------------------------------------------------------------|
E|---------------------------------------------------------------|

End:

   G#5  C#5  F#5  C#5 G#5           
e|----------------------------------|
B|----------------------------------|
G|------6---------6-----------------|
D|-6----6----4----6---6-------------|
A|-6----4----4----4---6-------------|
E|-4---------2--------4-------------|


Comments