Green Day - All The Time Chords & Tabs

 

All The Time Chords & Tabs

Green Day Chords & Tabs

Version: 6 Type: Tab 0 ratings
1 star 2 stars 3 stars 4 stars 5 stars
comments

All The Time Tab

This Tab Is 100% Correct, i have the nimrod guitar song book
dissagree? Email me at Dracklord_99@hotmail.com (yeh its a bad email acc)

/= slide up
x= play note with heavy damping

Tuning: Standard
Tempo: Moderately Fast

Intro:
e|-------2----------------------------------------|
b|-------3---2------------------------------------|
g|-1-1---2---2--------1-1-1-1-1-1-1---------------|
d|-2-2---0---2---(x9)-2-2-2-2-2-2-2---------------|
a|-2-2----------------2-2-2-2-2-2-2---------------|
e|------------------------------------------------|

e|-------------------------2-x-x------------------|
b|-------------------------3-x-x------------------|
g|-4-/-5-5--5-5-5--3--3-3--2-x-x------------------|
d|-6-/-7-7--7-7-7--4--4-4-----------(x6)----------|
e|-6-/-7-7--7-7-7--4--4-4-------------------------|
a|-4-/-5-7--5-5-7--3--3-3-------------------------|

e|-------2----------------------------------------|
b|-------3---2------------------------------------|
g|-1-1---2---2--------1-1-1-1-1-1-1---------------|
d|-2-2---0---2---(x9)-2-2-2-2-2-2-2---------------|
a|-2-2----------------2-2-2-2-2-2-2---------------|
e|------------------------------------------------|

e|-------------------------2-x-x------------------|
b|-------------------------3-x-x------------------|
g|-4-/-5-5--5-5-5--3--3-3--2-x-x------------------|
d|-6-/-7-7--7-7-7--4--4-4-----------(x4)----------|
e|-6-/-7-7--7-7-7--4--4-4-------------------------|
a|-4-/-5-7--5-5-7--3--3-3-------------------------|
[ Tab from: http://www.guitartabs.cc/tabs/g/green_day/all_the_time_tab_ver_6.html ]
e|-------2----------------------------------------|
b|-------3---2------------------------------------|
g|-1-1---2---2--------1-1-1-1-1-1-1---------------|
d|-2-2---0---2---(x9)-2-2-2-2-2-2-2---------------|
a|-2-2----------------2-2-2-2-2-2-2---------------|
e|------------------------------------------------|

e|-------------------------2-x-x------------------|
b|-------------------------3-x-x------------------|
g|-4-/-5-5--5-5-5--3--3-3--2-x-x------------------|
d|-6-/-7-7--7-7-7--4--4-4-----------(x4)----------|
e|-6-/-7-7--7-7-7--4--4-4-------------------------|
a|-4-/-5-7--5-5-7--3--3-3-------------------------|

e|---------------------------|
b|----4-/-5-------3-3--------|
g|-5--6-/-7--3-x--5-5---(x4)-|
d|-7--6-/-7--5-x--5-5--------|
e|-7--4-/-5--5-x--3-3--------|
a|-5---------3-x-------------|

e|-------------------------2-x-x------------------|
b|-------------------------3-x-x------------------|
g|-4-/-5-5--5-5-5--3--3-3--2-x-x------------------|
d|-6-/-7-7--7-7-7--4--4-4-----------(x4)----------|
e|-6-/-7-7--7-7-7--4--4-4-------------------------|
a|-4-/-5-7--5-5-7--3--3-3-------------------------|

e|-------2-----------------------------------------|
b|-------3---2-------------------------------------|
g|-1-1---2---2--------1-1-1-1-1-1-1----4-/-5-5-----|
d|-2-2---0---2---(x9)-2-2-2-2-2-2-2----6-/-7-7-----|
a|-2-2----------------2-2-2-2-2-2-2----6-/-7-7-----|
e|-------------------------------------4-/-5-5-----|


Hope You Enjoyed!!
Tabbed Bye XilefTabs00
Comments