Green Day - All The Time Chords & Tabs

 

All The Time Chords & Tabs

Green Day Chords & Tabs

Version: 5 Type: Tab 0 ratings
1 star 2 stars 3 stars 4 stars 5 stars
comments

All The Time Tab

ALL THE TIME
Tabbed by: Mike Newhook
I hope you 

intro & chorus
|---------------------|-------------------|
|---------------------|-------------------|
|---------------------|-------------------|
|-9-9--7-----------x7-|-9-9-9-9-9-9-9-9-9-|
|-7-7--5--7-----------|-7-7-7-7-7-7-7-7-7-|
|---------5-(0)-(0)---|-------------------|


verse
|-------------------------|
|-------------------------|
|-------------------------|
|-------------------7-7-7-|
|-6/7-7-7-7-7-5-5-5-5-5-5-|
|-4/5-5-5-5-5-3-3-3-------|

bridge
|----------------------|
|----------------------|
|----------------------|
|---6-7-7----4-5-5-5-4-|
|-7-4-5-5--5-2-3-3-3-2-|
|-5--------3-----------|

Outro
|---------------------------|-------|
|---------------------------|-------|
|-------------------7-7-7-x4|-------|
|-6/7-7-7-7-7-5-5-5-5-5-5---|-6/7-7-|
|-4/5-5-5-5-5-3-3-3---------|-4/5-5-|        
[ Tab from: http://www.guitartabs.cc/tabs/g/green_day/all_the_time_tab_ver_5.html ]
Lyrics:
All the time, Everytime I need it
What's the time? I'd say the time is right.
Here's to me, let's find another reason.
Down the hatch, and a bad attitude, salud.
Wasting time, wasting time down a bum fuck road.
And I don't know where the hell it'll go.
Heirlooms and huffing fumes, and i'm picking up the pace
and i'm gonna smash right into a wall.
All the time, A New Years resolution
How soon that we forget.
Doing time, loving every minute
Live it up on another let down, salud.
Promises, promises it was all set in stone
Cross my heart and I hope to die.
Sugar fix, dirty tricks and a trick question
Guess I should have read between the lines.
Having the time of my life,
Watching the clock tick
All the time, where did all the time go?
It's too late to say goodnight.
Time fly's, when your having fun.
Times up when you work like a dog, salud

To contact me: newhookmichael@hotmail.com
Comments