Green Day - All The Time Chords & Tabs

 

All The Time Chords & Tabs

Green Day Chords & Tabs

Version: 4 Type: Tab 0 ratings
1 star 2 stars 3 stars 4 stars 5 stars
comments

All The Time Tab

Green Day, All The Time.
 Tabbed by Sebastian Lapidus, sebaslap@yahoo.com.
  
Intro:

|-----------|
|-----------|
|-9-9-7-7---|
|-9-9-7-7-7-|
|-7-7-5-5-7-|
|---------5-|

Verse:
[ Tab from: http://www.guitartabs.cc/tabs/g/green_day/all_the_time_tab_ver_4.html ]
|---------------------------------|
|---------------------------------|
|---------------------7-7-7-7-7-7-|
|-7-7-7-7-7-5-5-5-5-5-7-7-7-7-7-7-|
|-7-7-7-7-7-5-5-5-5-5-5-5-5-5-5-5-|
|-5-5-5-5-5-3-3-3-3-3-------------|

Bridge:

|-----------------|
|-----------------|
|-----7-7-----5-5-|
|-7-7-7-7-5-5-5-5-|
|-7-7-5-5-5-5-3-3-|
|-5-5-----3-3-----|

That's all. When The bridge ends go back to verse and after play intro until the end. I cannot remember how many times is played each part. 
:: Ultimate Guitar Archive :: 
http://www.ultimate-guitar.com 



Comments