Green Day - All The Time Chords & Tabs

 

All The Time Chords & Tabs

Green Day Chords & Tabs

Version: 5 Type: Bass Tab

All The Time Bass Tab

   
Song: All The Time
Album: Nimrod
Bassist: Mike Dirnt
Artist: Green Day
Tuning: E,A,D,G

Not In Tune? Check Out http://www.tunemybass.com To be sure!

Intro/Chorus
G[------------]               
D[------------]
A[-7-7--5-----]
E[---------5--]

[ Tab from: http://www.guitartabs.cc/tabs/g/green_day/all_the_time_btab_ver_5.html ]
Intro/Chorus Part 2
G[------------]
D[------------]
A[777777777777]
E[------------]

Verse
G[---------------------------------------]
D[---------------------------------------]
A[---------------------------5-5-5-5-5-5-]
E[-4/5-5-5-5-5-5-3-3-3-3-3-3-------------]


Bridge
G[------------------]
D[------------------]
A[---4-5-4----2-3-2-]
E[-5--------3-------]

Listen To The Song For Number of Times For The Riffs/Rythym