Green Day - All By Myself Chords & Tabs

 

All By Myself Chords & Tabs

Green Day Chords & Tabs

Version: 9 Type: Tab 0 ratings
1 star 2 stars 3 stars 4 stars 5 stars
comments

All By Myself Tab

   
Greenday - All By Myself

As corny as this song is its kind fun to play...


     D       Dsus      D        Dsus     
e|--2-2-2-2--3-3-3-3--2-2-2-2--3-3-3-3---|
B|---3-3-3-3--3-3-3-3--3-3-3-3--3-3-3-3--|
G|--2--------2--------2--------2---------|
D|---------------------------------------|
A|---------------------------------------|
E|---------------------------------------|

         D       Dsus      D        Dsus     
e|------2-2-2-2--3-3-3-3--2-2-2-2--3-3-3-3---|
B|-------3-3-3-3--3-3-3-3--3-3-3-3--3-3-3-3--|
G|------2--------2--------2--------2---------|
D|-------------------------------------------|
A|-------------------------------------------|
E|-------------------------------------------|
  I was alone.   I was all by myself.

     D       Dsus      D        Dsus     
e|--2-2-2-2--3-3-3-3--2-2-2-2--3-3-3-3---|
B|---3-3-3-3--3-3-3-3--3-3-3-3--3-3-3-3--|
G|--2--------2--------2--------2---------|
D|---------------------------------------|
A|---------------------------------------|
E|---------------------------------------|
  No one was looking. I was thinking of you.

     D       Dsus      D        Dsus     
e|--2-2-2-2--3-3-3-3--4-4-4-4--5-5-5-5---|
B|---3-3-3-3--3-3-3-3--5-5-5-5--5-5-5-5--|
G|--2--------2--------4--------4---------|
D|---------------------------------------|
A|---------------------------------------|
E|---------------------------------------|
 O ya did I mention.  I was all by myself
[ Tab from: http://www.guitartabs.cc/tabs/g/green_day/all_by_myself_tab_ver_9.html ]
     D       Dsus      D        Dsus     
e|--4-4-4-4--5-5-5-5--4-4-4-4--5-5-5-5---|
B|---5-5-5-5--5-5-5-5--5-5-5-5--5-5-5-5--|
G|--4--------4--------4--------4---------|
D|---------------------------------------|
A|---------------------------------------|
E|---------------------------------------|  
  All by myself.       All by myself. 

     D       Dsus      
e|--4-4-4-4--5-5-5-5---|
B|---5-5-5-5--5-5-5-5--|
G|--4--------4---------|
D|---------------------|
A|---------------------|
E|---------------------|  
  All by myself.  

         D       Dsus      D        Dsus     
e|------2-2-2-2--3-3-3-3--2-2-2-2--3-3-3-3---|
B|-------3-3-3-3--3-3-3-3--3-3-3-3--3-3-3-3--|
G|------2--------2--------2--------2---------|
D|-------------------------------------------|
A|-------------------------------------------|
E|-------------------------------------------|
  i Went to your house.   But no-one was there.

     D       Dsus      D        Dsus     
e|--2-2-2-2--3-3-3-3--2-2-2-2--3-3-3-3---|
B|---3-3-3-3--3-3-3-3--3-3-3-3--3-3-3-3--|
G|--2--------2--------2--------2---------|
D|---------------------------------------|
A|---------------------------------------|
E|---------------------------------------|
  I went in your room. I was all by myself.

     D       Dsus      D        Dsus     
e|--2-2-2-2--3-3-3-3--4-4-4-4--5-5-5-5---|
B|---3-3-3-3--3-3-3-3--5-5-5-5--5-5-5-5--|
G|--2--------2--------4--------4---------|
D|---------------------------------------|
A|---------------------------------------|
E|---------------------------------------|
  You and me had. Such wonderfull times.

     D       Dsus      D        Dsus     
e|--4-4-4-4--5-5-5-5--4-4-4-4--5-5-5-5--4-|
B|---5-5-5-5--5-5-5-5--5-5-5-5--5-5-5-5---|
G|--4--------4--------4--------4--------4-|
D|----------------------------------------|
A|----------------------------------------|
E|----------------------------------------|  
  When I'm all myself.   All by myself.
Comments