Green Day - All By Myself Chords & Tabs

 

All By Myself Chords & Tabs

Green Day Chords & Tabs

Version: 2 Type: Tab 3 ratings
1 star 2 stars 3 stars 4 stars 5 stars
comments

All By Myself Tab

All By Myself---- Greenday

Figured this one out on my own!

ENJOY!
[ Tab from: http://www.guitartabs.cc/tabs/g/green_day/all_by_myself_tab_ver_2.html ]
 |   |   |    |   |   |    |   |   |    |   |   |
|2-----2-----|2-----2--3--|---3-----3--|---3-----2--|
|---3-----3--|---3--------|3-----3-----|3-----3-----|
|------------|---------0--|------------|------------|
|0-----------|------------|------------|---------0--|
|------------|------------|------------|------------|
|------------|------------|------------|------------|
                             
                                                   -----|          
|---2-----2--|---2-----3--|---3-----3--|---3--------|   |           
|3-----3-----|3-----3-----|3-----3-----|3-----3-----|   |           
|------------|---------0--|------------|------------|   |               
|------------|------------|------------|------------|   |     
Comments