Green Day - All By Myself Chords & Tabs

 

All By Myself Chords & Tabs

Green Day Chords & Tabs

Version: 1 Type: Tab 8 ratings
1 star 2 stars 3 stars 4 stars 5 stars
comments

All By Myself Tab

hello people this is j38knight
song:all by myself
band:green day!!!!
this is how it goes

[ Tab from: http://www.guitartabs.cc/tabs/g/green_day/all_by_myself_tab.html ]
 --2-2-2-2-2-2-2-2--3-3-3-3-3-3-3-3---
 ---3-3-3-3-3-3-3-3--3-3-3-3-3-3-3-3--
 -------------------------------------
 -------------------------------------
 -------------------------------------
 -------------------------------------

 --4-4-4-4-4-4-4-4--5-5-5-5-5-5-5-5---
 ---5-5-5-5-5-5-5----5-5-5-5-5-5-5-5--
 -------------------------------------
 -------------------------------------
 -------------------------------------
 -------------------------------------


   THATS ALL PEOPLES
Comments