Green Day - All By Myself Chords & Tabs

 

All By Myself Chords & Tabs

Green Day Chords & Tabs

Version: 3 Type: Bass Tab 0 ratings
1 star 2 stars 3 stars 4 stars 5 stars
comments

All By Myself Bass Tab

   
Song: All by Myself
Artist: Green Day
Album: Dookie (Secret song)
Tabbed By: Scott Sherman
Tune: E to Eb

Main
G---------------------------------------------------------|
D-----6-------6-------6-------6-------6-------6-------6---|
A-6-------6-------6-------6-------6-------6-------6-------|
E---------------------------------------------------------|
[ Tab from: http://www.guitartabs.cc/tabs/g/green_day/all_by_myself_btab_ver_3.html ]
Main2  X=Stop
G----------------------------------X
D-----8-------8-------8-------8---8X
A-8-------8-------8-------8--------X
E----------------------------------X

Outro
G------------------------------------------------------------------X
D-----6-------6-------6-------6-------8-------8-------8-------8---8X
A-6-------6-------6-------6-------8-------8-------8-------8--------X
E------------------------------------------------------------------X
END
Comments or corrections mail me at shermdog17@yahoo.com
Check out my band at www.geocities.com/thecause_ifanything/punk.html
Comments