Green Day - 99 Revolutions Chords & Tabs

 

99 Revolutions Chords & Tabs

Green Day Chords & Tabs

Version: 1 Type: Tab 0 ratings
1 star 2 stars 3 stars 4 stars 5 stars
comments

99 Revolutions Tab

Green Day
99 Revolutions
Tre!
start is from live version. rest is studio so i cant put time times on it
palm mute - *
let ring - ~~

NOTE: THERE IS NO REAL REPETITIVE STRUCTURE IN THIS SONG, SO IF YOU THINK THE CHORUS
MIGHT BE THE SAME PATTERN, ITS DIFFERENT..

Introduction 1
Lead part 
e|-----------------------------------------------------|
B|-----------------------------------------------------|
G|-5555555555555555-12121212121212121212121212121212---|
D|------------------10101010101010101010101010101010---|
A|--------------------------tens-&-twelves-------------|
E|-----------------------------------------------------|..

AlL IN


Introduction 2
Lead part
e|----------------------------------------------------------------------------------------|   |-----|
B|-13~-13-15~-13-13-13---12~-12-13~-12-12-12---10~-10-11~-10-10-10/--12~-12-13~-12-12-12--|   |-13~~|
G|-12~-12-12~-12-12-12---12~-12-12~-12-12-12---10~-10-10~-10-10-10/--12~-12-12~-12-12-12--|x2 |-----|
D|----------------------------------------------------------------------------------------|x2 |-----|
A|----------------------------------------------------------------------------------------|   |-----|
E|----------------------------------------------------------------------------------------|   |-----|
Introduction 2
Rhythm part
e|-----------------------------------------------------------------------------------------|
B|-----------------------------------------------------------------------------------------|
G|---5-5-5-5-5-5-5-5-----------------------------------------------------------------------|
D|---5-5-5-5-5-5-5-5-------5-5-5-5-5-5-5-5-------3-3-3-3-3-3-3-3-------5-5-5-5-5-5-5-5-----|x2
A|---3-3-3-3-3-3-3-3-------5-5-5-5-5-5-5-5-------3-3-3-3-3-3-3-3-------5-5-5-5-5-5-5-5-----|x2
E|-------------------------3-3-3-3-3-3-3-3-------1-1-1-1-1-1-1-1-------3-3-3-3-3-3-3-3-----|




Verse 1                                            1st, 2nd & 3rd Ending
e|------------------------------------------------|--------------------|
B|------------------------------------------------|--------------------|
G|-5-5-5-5-5-5-5-5--------------------------------|-5-5-5-5-5-5-5-5-5~~|
D|-5-5-5-5-5-5-5-5-5-5-5-5-5-5-5-5-3-3-3-3-3-3-3-3|-5-5-5-5-5-5-5-5-5~~|
A|-3-3-3-3-3-3-3-3-5-5-5-5-5-5-5-5-3-3-3-3-3-3-3-3|-3-3-3-3-3-3-3-3-3~~|
E|-----------------3-3-3-3-3-3-3-3-1-1-1-1-1-1-1-1|--------------------|..
   * * * * * * * * * * * * * * * * * * * * * * * *  *   * *   *   *
 4th Ending
e|-------------------------------------|
B|-------------------------------------|
G|-------------------------------------|
D|-5~-5-5-5~-5-5-5~-5-5-5~-5-5-5~5~5~5~|
A|-5~-5-5-5~-5-5-5~-5-5-5~-5-5-5~5~5~5~|
E|-3~-3-3-3~-3-3-3~-3-3-3~-3-3-3~3~3~3~|
      * *    * *    * *    * *


Chorus 1
e|-------------------------------------------------------------------|
B|-------------------------------------------------------------------|
G|---5-5-5-5-5-5-5-5-5-5-5-5-5-5-5-5---------------------------------|
D|---5-5-5-5-5-5-5-5-3-3-3-3-3-3-3-3-3-3-3-3-3-3-3-3-5-5-5-5-5-5-5-5-|
A|---3-3-3-3-3-3-3-3-3-3-3-3-3-3-3-3-3-3-3-3-3-3-3-3-5-5-5-5-5-5-5-5-|
E|-----------------------------------1-1-1-1-1-1-1-1-3-3-3-3-3-3-3-3-|...
2nd part of chorus
e|---------------------------------------------------------------------|
B|---------------------------------------------------------------------|
G|---5-5-5-5-5-5-5-5-------------------------------------------------5~|
D|---5-5-5-5-5-5-5-5-5-5-5-5-5-5-5-5-3-3-3-3-3-3-3-3-5-5-5-5-5-5-5-5-5~|
A|---3-3-3-3-3-3-3-3-5-5-5-5-5-5-5-5-3-3-3-3-3-3-3-3-5-5-5-5-5-5-5-5-3~|
E|-------------------3-3-3-3-3-3-3-3-1-1-1-1-1-1-1-1-3-3-3-3-3-3-3-3---|
                                                     *   * *   *   * 

[ Tab from: http://www.guitartabs.cc/tabs/g/green_day/99_revolutions_tab.html ]
                       ____________________________
                         PLAY INTRODUCTION PART 2 
                               ONE TIME ONLY     
     

                    __________________________________
                      PLAY VERSE 1 BUT WITH A LONGER   
                     ENDING (4 BARS OF G, INSTEAD OF 2)
   

                            __________________
                             DRUMS FOR 8 BARS

                      ________________________________
                      DRUM AND BASS FOR 4 BARS; THEN..

                     ________________________________
                         PLAY INTRODUCTION PART 1..



Bridge thingo
Rhythm part
e|-------------------------------------------------------------------|
B|-------------------------------------------------------------------|
G|---5-5-5-5-5-5-5-5-5-5-5-5-5-5-5-5---------------------------------|
D|---5-5-5-5-5-5-5-5-3-3-3-3-3-3-3-3-3-3-3-3-3-3-3-3-5-5-5-5-5-5-5-5-|
A|---3-3-3-3-3-3-3-3-3-3-3-3-3-3-3-3-3-3-3-3-3-3-3-3-5-5-5-5-5-5-5-5-|
E|-----------------------------------1-1-1-1-1-1-1-1-3-3-3-3-3-3-3-3-|...

e|---------------------------------------------------------------------|
B|---------------------------------------------------------------------|
G|---5-5-5-5-5-5-5-5-------------------------------------------------5~|
D|---5-5-5-5-5-5-5-5-5-5-5-5-5-5-5-5-3-3-3-3-3-3-3-3-5-5-5-5-5-5-5-5-5~| x2
A|---3-3-3-3-3-3-3-3-5-5-5-5-5-5-5-5-3-3-3-3-3-3-3-3-5-5-5-5-5-5-5-5-3~|
E|-------------------3-3-3-3-3-3-3-3-1-1-1-1-1-1-1-1-3-3-3-3-3-3-3-3---|
                                                     *   * *   *   * 

Lead part (i think) and each chord follows the rhythm. (soft)
e|----------------------------------------------------------------------------------------|   
B|-13~-13-17~-13-13-13---13~-13-17~-13-13-13---10~-10-13~-10-10-10---12~-12-15~-12-12-12--|   
G|-12~-12-12~-12-12-12---12~-12-12~-12-12-12---10~-10-10~-10-10-10---12~-12-12~-12-12-12--| 
D|----------------------------------------------------------------------------------------|
A|----------------------------------------------------------------------------------------|   
E|----------------------------------------------------------------------------------------|

e|----------------------------------------------------------------------------------------|   
B|-13~-13-17~-13-13-13---12~-12-15~-12-12-12---10~-10-13~-10-10-10---12~-12-15~-12-12-12--|   
G|-12~-12-12~-12-12-12---12~-12-12~-12-12-12---10~-10-10~-10-10-10---12~-12-12~-12-12-12--| 
D|----------------------------------------------------------------------------------------| x2
A|----------------------------------------------------------------------------------------|   
E|----------------------------------------------------------------------------------------|


                  _______________________________
                    PLAY INTRODUCTION 2 TIMES



''9, 9, TO 1''
e|-----------------------------------------------------|
B|-----------------------------------------------------|
G|--5~------------------5~---4~------------------------|
D|--5~---5~---3~---5~---5~---5~---3~---5~--------------|
A|--3~---5~---3~---5~---3~---5~---1~---5~--------------|
E|-------3~---1~---3~--------3~---1~---3~--------------|


''YEAHHHHH''
e|----------------------------------------------------------------------------------------|
B|---------(PLAY WHEN NEEDED (10 OF EACH CHORD)-------------------------------------------|
G|-5~--------5-5-5~--------5-5-5~--------5-5-5~--------5-5-5~----------------5-5-5-5-5~---|
D|-5~-5-5-5~-5-5-5~-5-5-5~-5-5-5~-5-5-5~-5-5-5~-5-5-5~-5-5-5~-5-5-5-5~-------5-5-5-5-5~---|
A|-3~-5-5-5~-3-3-3~-5-5-5~-3-3-3~-5-5-5~-3-3-3~-5-5-5~-3-3-3~-5-5-5-5~-------3-3-3-3-3~---|
E|----3-3-3~--------3-3-3~--------3-3-3~--------3-3-3~--------3-3-3-3~--------------------|


DONE
I BELIEVE THAT WILL BE (IS) THE STUDIO VERSION. IF NOT THIS IS A STARTING POINT AND WILL FIX
THIS AND ADD WHATEVER ASAP.
CHEERS PLEASE RATE AND COMMENT
Comments