Green Day - 86 Chords & Tabs

 

86 Chords & Tabs

Green Day Chords & Tabs

Version: 6 Type: Tab 0 ratings
1 star 2 stars 3 stars 4 stars 5 stars
comments

86 Tab

   
Green Day, 86.
Tabbed by Sebastian Lapidus, sebaslap@yahoo.com.

86
by Green Day

Tune a half step down


Intro/chorus
e------------------------------------------|
B------------------------------------------|
G-9-9-9-9-9-9-9----------------------------|
D-9-9-9-9-9-9-9--6-6-6-6-6-6-7-7-7-7-7-7-7-|
A-7-7-7-7-7-7-7--6-6-6-6-6-6-7-7-7-7-7-7-7-|
E----------------4-4-4-4-4-4-5-5-5-5-5-5-5-|


Verse

e--------------------------------------------------|
B--------------------------------------------------|
G--------------------------------------------------|
D-2-2-2-2-2-2-2-2--9-9-9-9-9-9-9-9-9-9-9-7-7-7-7-7-|
A-2-2-2-2-2-2-2-2--9-9-9-9-9-9-9-9-9-9-9-7-7-7-7-7-|
E-0-0-0-0-0-0-0-0--7-7-7-7-7-7-7-7-7-7-7-5-5-5-5-5-|
pm________________________________________________


e--------------------------------------------------|
B--------------------------------------------------|
G--------------------------------------------------|
D-7-7-7-2-2-2-2-2-2-2-2-2-7-7-2-2-2-2-2-2-2-2-2-2--|
A-7-7-7-2-2-2-2-2-2-2-2-2-7-7-2-2-2-2-2-2-2-2-2-2--|
E-5-5-5-0-0-0-0-0-0-0-0-0-5-5-0-0-0-0-0-0-0-0-0-0--|
pm_______________________    pm__________________
[ Tab from: http://www.guitartabs.cc/tabs/g/green_day/86_tab_ver_6.html ]
e----------------------------------------------------|
B----------------------------------------------------|
G----------------------------------------------------|
D-9-9-9-9-9-9-9-9-7-7-7-7-7-7-7-2-2-2-2-2-2-2-2-5-5--|
A-9-9-9-9-9-9-9-9-7-7-7-7-7-7-7-2-2-2-2-2-2-2-2-5-5--|
E-7-7-7-7-7-7-7-7-5-5-5-5-5-5-5-0-0-0-0-0-0-0-0-7-7--|
 pm______________

Pre-vrese
e---------------------------------------------------|
B---------------------------------------------------|
G---------------------------------------------------|
D-9-9-9-9-9-9-9-9-9-9-9-9-9-7-7-7-7-7-7-7-7-7-7-7-7-|
A-9-9-9-9-9-9-9-9-9-9-9-9-9-7-7-7-7-7-7-7-7-7-7-7-7-|
E-7-7-7-7-7-7-7-7-7-7-7-7-7-5-5-5-5-5-5-5-5-5-5-5-5-|


Bridge

e------------------------------------------|
B------------------------------------------|
G-9-9-9-9-9-9-9----------------------------|
D-9-9-9-9-9-9-9--6-6-6-6-6-6-7-7-7-7-7-7-7-| X4
A-7-7-7-7-7-7-7--6-6-6-6-6-6-7-7-7-7-7-7-7-|
E----------------4-4-4-4-4-4-5-5-5-5-5-5-5-|
...then

e---------------------------------------------------|
B---------------------------------------------------|
G---------------------------------------------------|
D-9-9-9-9-9-9-7---9-9-9-9-9-9-7-7-7-7-7-7-7-7-7-7-7-|
A-9-9-9-9-9-9-7---9-9-9-9-9-9-7-7-7-7-7-7-7-7-7-7-7-|
E-7-7-7-7-7-7-5---7-7-7-7-7-7-5-5-5-5-5-5-5-5-5-5-5-|

Then go back to chorus and finish with this

e---------------------------------------------------|
B---------------------------------------------------|
G---------------------------------------------------|
D-9-9-9-9-9-9-----7---------------------------------|
A-9-9-9-9-9-9-----7---------------------------------|
E-7-7-7-7-7-7-----5---------------------------------|
:: Ultimate Guitar Archive ::
http://www.ultimate-guitar.com
Comments