Green Day - 86 Chords & Tabs

 

86 Chords & Tabs

Green Day Chords & Tabs

Version: 3 Type: Tab 0 ratings
1 star 2 stars 3 stars 4 stars 5 stars
comments

86 Tab

   
Green Day-86

Guitarist-Billie Joe Armstrong

Album-Insomniac/Warning
Tabber-Green Day FReak

tune half a step down.


Intro:

pick scrape

e|--------------------------------------------------------------
B|--------------------------------------------------------------
G|-9-9-9-----------------------9-9-9----------------------------
D|-9-9-9-6-6-6-7-7-7-7-7-7-7-7-9-9-9-6-6-6-7-7-7-7-7-7-7-7------
A|-7-7-7-6-6-6-7-7-7-7-7-7-7-7-7-7-7-6-6-6-7-7-7-7-7-7-7-7------
E|-------4-4-4-5-5-5-5-5-5-5-5-------4-4-4-5-5-5-5-5-5-5-5------
   E5    G#5   A5


Verse:

e|--------------------------------------------------------------
B|--------------------------------------------------------------
G|-1-1-1-1-1-1-1-1-4-4-4-4-4-4-4-2-2-2-2-2-2-2-2-1-1-2-2-1-1----
D|-2-2-2-2-2-2-2-2-4-4-4-4-4-4-4-2-2-2-2-2-2-2-2-2-2-2-2-2-1----  
A|-2-2-2-2-2-2-2-2-2-2-2-2-2-2-2-----------------2-2-----2-2----
E|-------------------------------------------------------------- X2
   E               Bm            Am             
  [pm]            [pm]           [pm]           [play open]

Pre-chorus:

e|---------------------------------------------------------------------
B|---------------------------------------------------------------------
G|---------------------------------------------------------------------
D|-9-9-9-9-9-9-9-9-7-7-7-7-7-7-7-7-9-9-9-9-9-9-9-9-7-7-7-7-7-7-7-7-----
A|-9-9-9-9-9-9-9-9-7-7-7-7-7-7-7-7-9-9-9-9-9-9-9-9-7-7-7-7-7-7-7-7-----
E|-7-7-7-7-7-7-7-7-5-5-5-5-5-5-5-5-7-7-7-7-7-7-7-7-5-5-5-5-5-5-5-5-----
   B5              A5

Chorus:
[ Tab from: http://www.guitartabs.cc/tabs/g/green_day/86_tab_ver_3.html ]
e|-------------------------------------------------------------
B|-------------------------------------------------------------
G|-9-9-9-------------------------------------------------------
D|-9-9-9-6-6-6-7-7-7-7-7-7-7-7---------------------------------
A|-7-7-7-6-6-6-7-7-7-7-7-7-7-7---------------------------------
E|-------4-4-4-5-5-5-5-5-5-5-5---------------------------------X4
   E5    G#5   A5      

Then:verse
     pre-chorus
     chorus

Interlude:

e|-------------------------------------------------------------
B|-------------------------------------------------------------
G|-9-9-9-------------------------------------------------------
D|-9-9-9-6-6-6-7-7-7-7-7-7-7-7---------------------------------
A|-7-7-7-6-6-6-7-7-7-7-7-7-7-7---------------------------------
E|-------4-4-4-5-5-5-5-5-5-5-5---------------------------------X3       

e|-------------------------------------------------------------
B|-------------------------------------------------------------
G|-9-9-9-------------------------------9-9---------------------
D|-9-9-9-6-6-6-7-7-7-7-7-7-7-7-7-7-7-7-9-9-6-6-7---------------
A|-7-7-7-6-6-6-7-7-7-7-7-7-7-7-7-7-7-7-7-7-6-6-7---------------
E|-------4-4-4-5-5-5-5-5-5-5-5-5-5-5-5-----4-4-5--5-6-7-5-6----

e|-------------------------------------------------------------
B|-------------------------------------------------------------
G|-9-9---------------------------------------------------------
D|-9-9-6-6-7-7-7-7-7-7-7-7-7-7-7-7-----------------------------
A|-7-7-6-6-7-7-7-7-7-7-7-7-7-7-7-7-----------------------------
E|-----4-4-5-5-5-5-5-5-5-5-5-5-5-5-----------------------------

Then:chorus

End with:

e|--------------------------
B|--------------------------
G|-9-9----------------------
D|-9-9-6-6-7-7--------------
A|-7-7-6-6-7-7--------------
E|-----4-4-5-5--------------

Awesome song about Billie Joe going back to his hometown after the dookie tour
but being rejectedcoz he was a "sellout".

Any problems do it yourself!
Comments