Green Day - 409 In Your Coffeemaker Chords & Tabs

 

409 In Your Coffeemaker Chords & Tabs

Green Day Chords & Tabs

Version: 1 Type: Tab 1 rating
1 star 2 stars 3 stars 4 stars 5 stars
comments

409 In Your Coffeemaker Tab

   
409 In Your Coffeemaker
Green Day
1,039/Smoothed Out Slappy Hours
Lyrics: Billie Joe Armstrong
Music: Green Day
Tuning: Normal
Notes: Pretty simple song, another GD classic.

h = hammer-on
p = pull-off
b = bend
/ = slide up
\ = slide down
5 = power chord

Intro (x4)
   C5   F#5 G5
e|---------------------------------------------------------------|
B|---------------------------------------------------------------|
G|-5--5----------------------------------------------------------|
D|-5--5--4--5----------------------------------------------------|
A|-3--3--4--5----------------------------------------------------|
E|-------2--3----------------------------------------------------|

Verse
   G5   F5
e|---------------------------------------------------------------|
B|---------------------------------------------------------------|
G|---------------------------------------------------------------|
D|-5----3--------------------------------------------------------|
A|-5----3--------------------------------------------------------|
E|-3----1--------------------------------------------------------|
[ Tab from: http://www.guitartabs.cc/tabs/g/green_day/409_in_your_coffeemaker_tab.html ]
Chorus
   C5   G5 (x3) C5   D5
e|---------------------------------------------------------------|
B|---------------------------------------------------------------|
G|-5------------5----7-------------------------------------------|
D|-5----5-------5----7-------------------------------------------|
A|-3----5-------3----5-------------------------------------------|
E|------3--------------------------------------------------------|

Bridge (for bridge, guitar only does G5-F5, for outro, do it all)
   G5  B5-C5-B5 F5 A5-A#5-A5 (x6 for bridge, x4 for outro)
e|---------------------------------------------------------------|
B|---------------------------------------------------------------|
G|------4-5-4-------2-3-2----------------------------------------|
D|-5-5--4-5-4--3-3--2-3-2----------------------------------------|
A|-5-5--2-3-2--3-3--0-1-0----------------------------------------|
E|-3-3---------1-1-----------------------------------------------|

Solo (over intro x2)(not tabbed yet)
e|---------------------------------------------------------------|
B|---------------------------------------------------------------|
G|---------------------------------------------------------------|
D|---------------------------------------------------------------|
A|---------------------------------------------------------------|
E|---------------------------------------------------------------|


Order

Intro
Verse 1
Verse 2
Chorus
Intro
Verse 1
Verse 3
Chorus
Intro
Bridge
Solo
Chorus
Intro
Bridge

Comments