Green Day - 409 In Your Coffeemaker Chords & Tabs

 

409 In Your Coffeemaker Chords & Tabs

Green Day Chords & Tabs

Version: 1 Type: Bass Tab 0 ratings
1 star 2 stars 3 stars 4 stars 5 stars
comments

409 In Your Coffeemaker Bass Tab

409 In Your Coffie Maker - Green Day
off "1039 Smoothed Out Slappy Hours" 

Intro 
G----------------------|
D----------------------|   x2
A--4-4-4-----4-4-4-----|
E--------3-4-------3-4-|

Verse
"I Sit In The State Of a Day Dream..."
G------------------|
D------------------|  Repeat A Bunch of times
A------------------|
E-4-4-4-4--2-2-2-2-|
[ Tab from: http://www.guitartabs.cc/tabs/g/green_day/409_in_your_coffeemaker_btab.html ]
Chorus
"And Im Looking Back Now at Where..."
G--------------------------------------|
D--------------------------------------| Repeat
A--4444------4444------4444------66666-|
E-------4444------4444------4444-------|

Then back to intro
Then verse
hen 
G--------------------|
D--------------------|x2
A-----3-4-3-----1-2-1|
E--4-4------2-2------|

Guitar solo is the same as intro
then verse
intro

outro
G----------------------------------|
D----------------------------------|
A----------------------------------|
E-44--22--44--22--44--22--44--2----|

That all very Cool song and its easy to play
Any questions E-mail me at HappyCow13@aol.com
            ~~Teddy
Comments