Green Day - 21 Guns Chords & Tabs

 

Green Day Chords & Tabs

Version: 5 Type: Tab 0 ratings
1 star 2 stars 3 stars 4 stars 5 stars
comments

21 Guns Tab

   
-------------------------------------------------------------------------------
			     21 guns - GREEN DAY
-------------------------------------------------------------------------------
Tabbed by: canariesz


Loved this song so much off the new album so thought i'd submit it as my first 
ever tab...Please leave comments : )

Listen to the song for timings......

Tuning: standard

INTRO

(lots of reverb)

e|---------------------------------------------------------------------------|
B|----------10---------------------------------------------------------------|
G|---10--7------9------------------------------------------------------------|
D|---------------------------------------------------------------------------|
A|---------------------------------------------------------------------------|
E|---------------------------------------------------------------------------| x 2


VERSE

 ( Clean)

e|---------------------------------------------------------------------------|
B|---------------------------------------------------------------------------]
G|--7--3-----5 ----7--3-----5----7--3-----5----3--5--------------------------|
D|--7--3--3--5-----7--3--3--5----7--3--3--5----3--5--------------------------|
A|--5--1--3--3-----5--1--3--3----5--1--3--3----1--3--------------------------|
E|--------1--------------1-------------1-------------------------------------|

e|---------------------------------------------------------------------------|
B|---------------------------------------------------------------------------]
G|--7--3-----5 ----7--3-----5----7--3-----5----3----------5------------------|
D|--7--3--3--5-----7--3--3--5----7--3--3--5----3----------5------------------|
A|--5--1--3--3-----5--1--3--3----5--1--3--3----1----------3------------------|
E|--------1--------------1-------------1-------------------------------------|

CHORUS

  (Distored)

e|---------------------------------------------------------------------------|
B|---------------------------------------------------------------------------|
G|---------7---5--3-----5---------7--5--3-----5--3-----5---------------------|
D|--3---3--7---5--3--3--5---3--3--7--5--3--3--5--3--3--5---------------------|
A|--3---3--5---3--1--3--3---3--3--5--3--1--3--3--1--3--3---------------------|
E|--1---0------------1------1--0-----------1--------1------------------------|

VERSE

 ( Clean)

e|---------------------------------------------------------------------------|
B|---------------------------------------------------------------------------]
G|--7--3-----5 ----7--3-----5----7--3-----5----3--5--------------------------|
D|--7--3--3--5-----7--3--3--5----7--3--3--5----3--5--------------------------|
A|--5--1--3--3-----5--1--3--3----5--1--3--3----1--3--------------------------|
E|--------1--------------1-------------1-------------------------------------|
[ Tab from: http://www.guitartabs.cc/tabs/g/green_day/21_guns_tab_ver_5.html ]
e|---------------------------------------------------------------------------|
B|---------------------------------------------------------------------------]
G|--7--3-----5 ----7--3-----5----7--3-----5----3----------5------------------|
D|--7--3--3--5-----7--3--3--5----7--3--3--5----3----------5------------------|
A|--5--1--3--3-----5--1--3--3----5--1--3--3----1----------3------------------|
E|--------1--------------1-------------1-------------------------------------|

BRIDGE

e|---------------------------------------------------------------------------|
B|---------------------------------------------------------------------------]
G|--7--3-----5 ----7--3-----6----7--3-----5----3--5--------------------------|
D|--7--3--3--5-----7--3--3--7----7--3--3--5----3--5--------------------------|
A|--5--1--3--3-----5--1--3--4----5--1--3--3----1--3--------------------------|
E|--------1--------------1-------------1-------------------------------------|

SOLO CHORDS 

e|---------------------------------------------------------------------------|
B|---------------------------------------------------------------------------|
G|---------7---5--3-----5---------7--5--3-----5--3---------------------------|
D|--3---3--7---5--3--3--5---3--3--7--5--3--3--5--3--3--7---------------------|
A|--3---3--5---3--1--3--3---3--3--5--3--1--3--3--1--3--7---------------------|
E|--1---0------------1------1--0-----------1--------1--5---------------------|

REPEAT INTRO

e|---------------------------------------------------------------------------|
B|----------10---------------------------------------------------------------|
G|---10--7------9------------------------------------------------------------|
D|---------------------------------------------------------------------------|
A|---------------------------------------------------------------------------|
E|---------------------------------------------------------------------------  x2

(CLEAN)

e|---------------------------------------------------------------------------|
B|---------------------------------------------------------------------------]
G|--7--3-----5 ----7--3-----5----7--3-----5----3-----------------------------|
D|--7--3--3--5-----7--3--3--5----7--3--3--5----3-----------------------------|
A|--5--1--3--3-----5--1--3--3----5--1--3--3----1-----------------------------|
E|--------1--------------1-------------1-------------------------------------|

REPEAT CHORUS

 (Distored)

e|---------------------------------------------------------------------------|
B|---------------------------------------------------------------------------|
G|---------7---5--3-----5---------7--5--3-----5------------------------------|
D|--3---3--7---5--3--3--5---3--3--7--5--3--3--5------------------------------|
A|--3---3--5---3--1--3--3---3--3--5--3--1--3--3------------------------------|
E|--1---0------------1------1--0-----------1---------------------------------| 

e|---------------------------------------------------------------------------|
B|---------------------------------------------------------------------------|
G|---------7---5--3-----5---------7--5--3-----5--3-----5---------------------|
D|--3---3--7---5--3--3--5---3--3--7--5--3--3--5--3--3--5---------------------|
A|--3---3--5---3--1--3--3---3--3--5--3--1--3--3--1--3--3---------------------|
E|--1---0------------1------1--0-----------1--------1------------------------|


THAT SHOULD BE ALL....ANY COMMENTS WOULD BE APPRECIATED......

i'M GOING TO TRY AND ADD THE LEAD GUITAR LATER




| /  slide up
| \  slide down
| h  hammer-on
| p  pull-off
| ~  vibrato
| +  harmonic
| x  Mute note
===============================================================================
Comments