Green Day - 21 Guns Chords & Tabs

 

21 Guns Chords & Tabs

Green Day Chords & Tabs

Version: 25 Type: Tab 0 ratings
1 star 2 stars 3 stars 4 stars 5 stars
comments

21 Guns Tab

   
Artist: Green Day
Song: 21 Guns
Album: 21st Century Breakdown
Tabbed by: Necriononguitar (more tabs)
E-Mail: tim.rathgen@gmx.de

REAL FANS SUPPORT BANDS BY PURCHASING THEIR CD'S!!!


Tuning: Standard

| /  slide up
| \  slide down
| h  hammer-on
| p  pull-off
| ~  vibrato
| +  harmonic
| x  Mute note


The best tab for this song has got the bad Solo-Tab, so i made a new one. Its 
played on a F bar chord on the A string.

Oh and the best way to learn the solo is by listening to me playing it :D
Heres my profile: http://profile.ultimate-guitar.com/necriononguitar/
just click on mp3's and search for 21 Guns solo. Trust me, it's worth it!


E------------------------------------------------------------------------|
B-----------10~-------8(~)--(8)h10---------------------------------------|
G-----------------------------------10~------10-------9(~)--(9)h10--7~---|
D-------10--------10----------------------10-----10----------------------|
A--/8--------------------------------------------------------------------|
E------------------------------------------------------------------------|
[ Tab from: http://www.guitartabs.cc/tabs/g/green_day/21_guns_tab_ver_25.html ]
                              /Long and hard vibrato here
E----------------------------------------------------------|
B----------------------------------------------------------|
G-----7-----------------------9~--9~--9~-10---12~----------|
D--8-----8-----10--7---------------------------------------|
A---------------------8------------------------------------|
E----------------------------------------------------------|


E------------------------------------------------------------------------|
B-----------10~-------8(~)--(8)h10---------------------------------------|
G-----------------------------------10~------10-------9(~)--(9)h10--7~---|
D-------10--------10----------------------10-----10----------------------|
A--/8--------------------------------------------------------------------|
E------------------------------------------------------------------------|

                              /Long and hard vibrato here
E--------------------------------------------(12~)---------|
B----------------------------------------------------------|
G-----7-----------------------9~--9~--9~-10---12~----------|
D--8-----8-----10--7---------------------------------------|
A---------------------8------------------------------------|
E----------------------------------------------------------|

(less distorcion here)       (normal now)
E---------------------------------------------------|
B---3---------1-------------------------------------|
G-----3---------2------------(/)9~--9~--9~--9~\-----|
D-------3---------3---------------------------------|
A---------------------------------------------------|
E---------------------------------------------------|


Thats it, i hope u enjoyed. I think its easy to play, but way better to play in a band. 
fuckin get up and have some fun :D
Comments