Green Day - 21 Guns Chords & Tabs

 

21 Guns Chords & Tabs

Green Day Chords & Tabs

Version: 9 Type: Bass Tab 0 ratings
1 star 2 stars 3 stars 4 stars 5 stars
comments

21 Guns Bass Tab

21 guns

Verse Starts on "Does the pain weigh
G|----------------------------|
D|----------------------------|
A|-5-5-1-1~-1/8-8--------(x3)-|
E|---------------88~-8--------|

Chorus
G|-------------------------------------------------------------------|
D|-------------------------------------------------------------------|
A|-------------5-5---3-3-3-3--1-1-1-1------------3-3-3-3-4-5---------|x2
E|-1-1---0-0------------------------------1-1-1-1--------------------|

G|---------------------------------------|
D|---------------------------------------|
A|-1-1-1-1---------3~--------------------|
E|---------1-1-1-1-----------------------|

Verse 2 Palm-muted
G|------------------------|--------------------------|
D|------------------------|--------------------------|
A|-5-5-11~-1/8-8----(x3)--|--------------------------|
E|--------------88~-8-----|-6-6-666-8-8-888----------|

G|----------------------------|-----------------------|
D|----------------------------|-----------------------|
A|-5-5-11~-1/8-8--------(x3)--|-----------------------|
E|---------------88~-8--------|-6~----8---------------|

Chorus
G|-------------------------------------------------------------|
D|-------------------------------------------------------------|
A|---------5-5--3-3-3-3--1-1-1-1-------3-3-3-3-3-4-5-----------|x2
E|-1-1--0-0---------------------1-1-1-1------------------------|
[ Tab from: http://www.guitartabs.cc/tabs/g/green_day/21_guns_btab_ver_9.html ]
G|------------------------------------------------|
D|------------------------------------------------|
A|-1-1-1-1---------3-3-3-3-3-3-3-3----------------|
E|----------1-1-1-1-------------------------------|

Bridge
G|------------------------------------------------------------|
D|------------------------------------------------------------|
A|-5-5--1-1-----3-3-3-3--5-5--1-1-----------0-0-0-0-----------|
E|------------1-1-----------------------1-1-1-1---------------|

G|--------------------------------------------------------------|
D|--------------------------------------------------------------|
A|-5-5--1-1--------0-0-0-0--1-1-1-1-1-1-1-1--3-3-3-3-3-3-3-3----|
E|---------1-1-1-1----------------------------------------------|

Solo
G|------------------------------------------------------------------------|
D|------------------------------------------------------------------------|
A|------------------5-5-5-5--3-3-3-3--1-1-1-1---------3-3-3-3-3-3-3-3-----|x2
E|-1-1-1-1--0-0-0-0---------------------------1-1-1-1---------------------|

G|-----------------------------------------|
D|-----------------------------------------|
A|-1-1-1-1-------0-0-0-0-0-0-0-0-----------|
E|--------1-1-1-1--------------------------|

Chorus
G|-------------------------------------------------------|
D|-------------------------------------------------------|
A|---------5-5--3-3-3-3--1-1-1-1--------3-3-3-3-3-4-5----|x4
E|-1-1--0-0----------------------1-1-1-1-----------------|

G|--------------------------------------|
D|--------------------------------------|
A|-1-1-1-1-------3~---------------------|
E|--------1-1-1-1-----------------------|
Comments