Green Day - 21 Guns Chords & Tabs

 

21 Guns Chords & Tabs

Green Day Chords & Tabs

Version: 7 Type: Bass Tab 0 ratings
1 star 2 stars 3 stars 4 stars 5 stars
comments

21 Guns Bass Tab

   
-------------------------------------------------------------------------------
			       21 Guns-Green Day
-------------------------------------------------------------------------------

Tabbed By:Stjimmy34 
Tuning:Standard

Verse Starts on "Does the pain weigh..." It's palm-muted too
G|----------------------------|----------------------------------------------|
D|----------------------------|----------------------------------------------|
A|-5-5-11~-1/8-8--------(x3)--|----------------------------------------------|
E|---------------88~-8--------|-6~----8--------------------------------------|

Chorus
G|------------------------------------------------|--------------------------|
D|-33--22--00-------------------------------------|--------------------------|
A|-------------33333--11111-------333333333--(x2)-|-1111------3~-------------|
E|--------------------------11111-----------------|------1111----------------|

Verse 2 Palm-muted
G|----------------------------|----------------------------------------------|
D|----------------------------|----------------------------------------------|
A|-5-5-11~-1/8-8--------(x3)--|----------------------------------------------|
E|---------------88~-8--------|-6-6-666-8-8-888------------------------------|
[ Tab from: http://www.guitartabs.cc/tabs/g/green_day/21_guns_btab_ver_7.html ]
G|----------------------------|----------------------------------------------|
D|----------------------------|----------------------------------------------|
A|-5-5-11~-1/8-8--------(x3)--|----------------------------------------------|
E|---------------88~-8--------|-6~----8--------------------------------------|

Chorus
G|------------------------------------------------|--------------------------|
D|-33--22--00-------------------------------------|--------------------------|
A|-------------33333--11111-------333333333--(x2)-|-1111------3x8------------|
E|--------------------------11111-----------------|------1111----------------|

Bridge
G|---------------------------------------------------------------------------|
D|---------------------------------------------------------------------------|
A|-55-11----3333--55-11-----------55-11-----------1x8-3x8--------------------|
E|-------11-------------1111-5555------1111-55555----------------------------|

Guitar solo
G|----------------------------------------------|----------------------------|
D|-3333-2222-0000-------------------------------|----------------------------|
A|----------------3333-1111------33333333--(x2)-|-1111-----------------------|
E|--------------------------1111----------------|------1111-55555555---------|

Chorus
G|------------------------------------------------|--------------------------|
D|-33--22--00-------------------------------------|--------------------------|
A|-------------33333--11111-------333333333--(x4)-|-1111------3x8------------|
E|--------------------------11111-----------------|------1111----------------|



| /  slide up
| \  slide down
| h  hammer-on
| p  pull-off
| ~  vibrato
| +  harmonic
| x  Mute note
===============================================================================
Comments