Green Day - 21 Guns Chords & Tabs

 

21 Guns Chords & Tabs

Green Day Chords & Tabs

Version: 6 Type: Bass Tab 0 ratings
1 star 2 stars 3 stars 4 stars 5 stars
comments

21 Guns Bass Tab

Song: 21 Guns
Artist: Green Day
CD: 21st Century Breakdown
Tuning: Standard

This is my first ever tab so if itís not good Iím sorry. Anyways, I think I got 
most of it right and it seems to go good with the song.

Verse (Start at :40) (the 11 are 1ís not 11ís)
G|---------------------------------------------------------------------------|
D|---------------------------------------------------------------------------|
A|-5-5-11-----33--5-5-11-----33--5-5-11-----33--1~-----3---------------------|
E|--------1-1------------1-1------------1-1----------------------------------|

Chorus
G|---------------------------------------------------------------------------|
D|---------------------------------------------------------------------------|
A|-------------5-5---3-3-3-3--1-1-1-1---------3-3-3-3-3-3-3-3----------------|x2
E|-1-1---0-0--------------------------1-1-1-1--------------------------------|

G|---------------------------------------------------------------------------|
D|---------------------------------------------------------------------------|
A|-1-1-1-1---------3~--------------------------------------------------------|
E|---------1-1-1-1-----------------------------------------------------------|

Verse
G|---------------------------------------------------------------------------|
D|---------------------------------------------------------------------------|
A|-5-5-11-----33--5-5-11-----33--5-5-11-----33-------------------------------|x6
E|--------1-1------------1-1------------1-1----------------------------------|

G|---------------------------------------------------------------------------|
D|---------------------------------------------------------------------------|
A|-5-5-11-----33--5-5-11-----33--5-5-11-----33--1~-----3---------------------|
E|--------1-1------------1-1------------1-1----------------------------------|

Chorus
G|---------------------------------------------------------------------------|
D|---------------------------------------------------------------------------|
A|------------5-5--3-3-3-3--1-1-1-1---------3-3-3-3-3-3-3-3------------------|x2
E|-1-1--0-0-------------------------1-1-1-1----------------------------------|
[ Tab from: http://www.guitartabs.cc/tabs/g/green_day/21_guns_btab_ver_6.html ]
G|---------------------------------------------------------------------------|
D|---------------------------------------------------------------------------|
A|-1-1-1-1---------3-3-3-3-3-3-3-3-------------------------------------------|
E|---------1-1-1-1-----------------------------------------------------------|

Bridge
G|---------------------------------------------------------------------------|
D|---------------------------------------------------------------------------|
A|-5-5--1-1-------3-3-3-3--5-5--1-1-----------0-0-0-0------------------------|
E|-----------1-1---------------------1-1-1-1---------------------------------|

G|---------------------------------------------------------------------------|
D|---------------------------------------------------------------------------|
A|-5-5--1-1-----------0-0-0-0--1-1-1-1-1-1-1-1--3-3-3-3-3-3-3-3--------------|
E|-----------1-1-1-1---------------------------------------------------------|

Solo
G|---------------------------------------------------------------------------|
D|---------------------------------------------------------------------------|
A|-------------------5-5-5-5--3-3-3-3--1-1-1-1-----------3-3-3-3-3-3-3-3-----|x2
E|-1-1-1-1--0-0-0-0-----------------------------1-1-1-1----------------------|

G|---------------------------------------------------------------------------|
D|---------------------------------------------------------------------------|
A|-1-1-1-1-----------0-0-0-0-0-0-0-0-----------------------------------------|
E|----------1-1-1-1----------------------------------------------------------|

Chorus
G|---------------------------------------------------------------------------|
D|---------------------------------------------------------------------------|
A|------------5-5--3-3-3-3--1-1-1-1---------3-3-3-3-3-3-3-3------------------|x4
E|-1-1--0-0-------------------------1-1-1-1----------------------------------|

G|---------------------------------------------------------------------------|
D|---------------------------------------------------------------------------|
A|-1-1-1-1---------3~--------------------------------------------------------|
E|---------1-1-1-1-----------------------------------------------------------|
Comments