Green Day - 2000 Light Years Away Chords & Tabs

 

2000 Light Years Away Chords & Tabs

Green Day Chords & Tabs

Version: 2 Type: Tab 0 ratings
1 star 2 stars 3 stars 4 stars 5 stars
comments

2000 Light Years Away Tab

Green Day 2000 Light years away
From the album Kerplunk 
Track 1
Tabbed by Liam
Email: guitar_rocker_47@hotmail.com
Tuning: standard

Intro
e|---------------------------------------------------------------------------|
B|---------------------------------------------------------------------------|
G|-4-4-4-4-4---------------4-4-4-4-4---------------4-4-4-4-4-----------------|
D|-4-4-4-4-4--6-4--4-4-4---4-4-4-4-4--6-4--4-4-4---4-4-4-4-4--6-4--4-4-4-----|
A|-2-2-2-2-2--6-4--4-4-4---2-2-2-2-2--6-4--4-4-4---2-2-2-2-2--6-4--4-4-4-----|
E|------------4-2--2-2-2--------------4-2--2-2-2--------------4-2--2-2-2-----|

e|---------------------------------------------------------------------------|
B|---------------------------------------------------------------------------|
G|--4-4-4-4------------------------------------------------------------------|
D|--4-4-4-4--6-4--4-4-4------------------------------------------------------|
A|--2-2-2-2--6-4--4-4-4------------------------------------------------------|
E|-----------4-2--2-2-2------------------------------------------------------|

Verse
e|---------------------------------------------------------------------------|
B|---------------------------------------------------------------------------|
G|-4-4-4-4-4-------------4-4-4-4-4-------------4-4-4-4-4---------------------|
D|-4-4-4-4-4--4-4-4-4-4--4-4-4-4-4--4-4-4-4-4--4-4-4-4-4--4-4-4-4-4----------|
A|-2-2-2-2-2--4-4-4-4-4--2-2-2-2-2--4-4-4-4-4--2-2-2-2-2--4-4-4-4-4----------|
E|------------2-2-2-2-2-------------2-2-2-2-2-------------2-2-2-2-2----------|

e|---------------------------------------------------------------------------|
B|---------------------------------------------------------------------------|
G|-4-4-4-4-4-----------------------------------------------------------------|
D|-4-4-4-4-4--4-4-4-4-4------------------------------------------------------|
A|-2-2-2-2-2--2-2-2-2-2------------------------------------------------------|
E|------------2-2-2-2-2------------------------------------------------------|
[ Tab from: http://www.guitartabs.cc/tabs/g/green_day/2000_light_years_away_tab_ver_2.html ]
Chorus
e|---------------------------------------------------------------------------|
B|---------------------------------------------------------------------------|
G|------------4-4-4-4-4------------------------------------------------------|
D|-6-6-6-6-6--4-4-4-4-4--6-x-x-6-x--4-4-4-4-4-4--2-2-2-2-2-2--4-4-4-4-4-4----|
A|-6-6-6-6-6--2-2-2-2-2--6-x-x-6-x--4-4-4-4-4-4--2-2-2-2-2-2--4-4-4-4-4-4----|
E|-4-4-4-4-4-------------4-x-x-4-x--2-2-2-2-2-2--0-0-0-0-0-0--2-2-2-2-2-2----|

e|---------------------------------------------------------------------------|
B|---------------------------------------------------------------------------|
G|------------4-4-4-4-4------------------------------------------------------|
D|-6-6-6-6-6--4-4-4-4-4--6-x-x-6-x--4-4-4-4-4-4--2-2-2-2-2-2--4-4-4-4-4-4----|
A|-6-6-6-6-6--2-2-2-2-2--6-x-x-6-x--4-4-4-4-4-4--2-2-2-2-2-2--4-4-4-4-4-4----|
E|-4-4-4-4-4-------------4-x-x-4-x--2-2-2-2-2-2--0-0-0-0-0-0--2-2-2-2-2-2----|

Verse 2
e|---------------------------------------------------------------------------|
B|---------------------------------------------------------------------------|
G|-4-4-4-4-4-------------4-4-4-4-4-------------4-4-4-4-4---------------------|
D|-4-4-4-4-4--4-4-4-4-4--4-4-4-4-4--4-4-4-4-4--4-4-4-4-4--4-4-4-4-4----------|
A|-2-2-2-2-2--4-4-4-4-4--2-2-2-2-2--4-4-4-4-4--2-2-2-2-2--4-4-4-4-4----------|
E|------------2-2-2-2-2-------------2-2-2-2-2-------------2-2-2-2-2----------|
PM * * * *    * * * *    * * * *    * * * *    * * * *    * * * *  

e|---------------------------------------------------------------------------|
B|---------------------------------------------------------------------------|
G|-4-4-4-4-4-----------------------------------------------------------------|
D|-4-4-4-4-4--4-4-4-4-4------------------------------------------------------|
A|-2-2-2-2-2--2-2-2-2-2------------------------------------------------------|
E|------------2-2-2-2-2------------------------------------------------------|
PM * * * *    * * * *


Order

Intro
Verse
Chorus
Intro
Verse 2
Chorus
Intro
Intro (just bass)
Verse (just bass)
Chorus
Intro

Lyrics

(Verse 1)
I sit alone in my bedroom, staring at the walls
I've been up all damn nightlong
My pulse is speeding, my love is yearning

(Chorus)
I hold my breath and close my eyes
And dream about her...			
Cause she's 2000 light years away   
She holds my malachite so tight so
Never let go...
Cause she's 2000 light years away

(Verse 2)
I sit outside and watch the sunrise
Lookout as far as I can
I can't see her, but in the distance
I hear some laughter, we laugh together

(Chorus)
(Verse 1)
(Chorus)
Comments