Green Day - 2000 Light Years Away Chords & Tabs

 

2000 Light Years Away Chords & Tabs

Green Day Chords & Tabs

Version: 1 Type: Chords 0 ratings
1 star 2 stars 3 stars 4 stars 5 stars
comments

2000 Light Years Away Chords




INTRO
|----------------|
|----------------|
|----------------|
|3-3-333---------| x4
|1-1-111-5-3-3333|
|--------3-1-1111| 

verse 1
|------------------|
|------------------|
|------------------|
|-3-3-3-3-3--------| x4
|-1-1-1-1-1-3-3-3-3|
|-----------1-1-1-1|

chorus
|------------------------------------------------------------------|
|------------------------------------------------------------------|
|------------------------------------------------------------------|
|----------5-5-5-5--------------------------------1/444-1/444-1/444|
|5-5-5-5-5-3-3-3-3-5xx5x5-5-5-5-5-3-3-3-3-5-5-5-5-3/222-3/222-3/222|
|3-3-3-3-3---------3xx3x3-3-3-3-3-1-1-1-1-3-3-3-3------------------|
[ Tab from: http://www.guitartabs.cc/tabs/g/green_day/2000_light_years_away_crd.html ]
|---------------------------------------------------------------------------------|
|---------------------------------------------------------------------------------|
|---------------------------------------------------------------------------------|
|----------5-5-5-5--------------------------------3-3-333---------3-3-333---------|
|5-5-5-5-5-3-3-3-3-5xx5x5-5-5-5-5-3-3-3-3-5-5-5-5-1-1-111-5-3-33331-1-111-5-3-3333|
|3-3-3-3-3---------3xx3x3-3-3-3-3-1-1-1-1-3-3-3-3---------3-1-1111--------3-1-1111|

|------------------------------------------------|
|------------------------------------------------|
|------------------------------------------------|
|3-3-333----------3-3-333------------------------|
|1-1-111-5-3-3333-1-1-111-5-3-3333---------------|
|--------3-1-1111---------3-1-1111---------------|

VERSE 2(same as verse 1 but palm mute thru the chords)

ORDER
intro
verse 1
chorus
intro
verse 2
Chorus
Intro
Intro (just bass)
Verse (just bass)
Chorus
Intro

and thats it plz comment and rate




Comments