Green Day - 2000 Light Years Away Chords & Tabs

 

2000 Light Years Away Chords & Tabs

Green Day Chords & Tabs

Version: 4 Type: Bass Tab 0 ratings
1 star 2 stars 3 stars 4 stars 5 stars
comments

2000 Light Years Away Bass Tab

   
Song:2000 Light Years Away
Album:Kerplunk
Tuning:Standard(E,A,D,G)
Keys: h=hammer on
      /=slide up
   
   Intro
G|------------------|
D|------------------|
A|-2-2-2/9----------|
E|---------2-20-000-| x4 

    Verse
G|-----------------|
D|-----------------|
A|-2-2-2-7---------|
E|---------2-2-2-2-| x4

    Chorus
G|----------------------------------|-----------------|
D|----------------------------------|-----------------|
A|-2222-4444------------------------|-----------------|
E|-----------44-44-222222-0000-2222-|-5h6-5h6-5h6-5h6-|

G|----------------------------------|
D|----------------------------------|
A|-2222-4444------------------------|
E|-----------44-44-222222-0000-2222-|
[ Tab from: http://www.guitartabs.cc/tabs/g/green_day/2000_light_years_away_btab_ver_4.html ]
    Pre Verse
G|------------------|
D|------------------|
A|-2-2-2/9----------|
E|---------2-20-000-| x4 
 
     Verse
G|-----------------|
D|-----------------|
A|-2-2-2-7---------|
E|---------2-2-2-2-| x4
 
     Chorus
G|------------------------------------------|-----------------|
D|------------------------------------------|-----------------|
A|-2222-4444--------------------------------|-----------------|
E|-----------44-44-222222-00000000-22222222-|-5h6-5h6-5h6-5h6-|

G|------------------------------------------|
D|------------------------------------------|
A|-2222-4444--------------------------------|
E|-----------44-44-222222-00000000-22222222-|
    
      Pre Verse/Solo
G|------------------|
D|------------------|
A|-2-2-2/9----------|
E|---------2-20-000-| x8

       Chorus
G|------------------------------------------|-----------------|
D|------------------------------------------|-----------------|
A|-2222-4444--------------------------------|-----------------|
E|-----------44-44-222222-00000000-22222222-|-5h6-5h6-5h6-5h6-|

G|------------------------------------------|
D|------------------------------------------|
A|-2222-4444--------------------------------|
E|-----------44-44-222222-00000000-22222222-|  
     
Well im pretty sure thats rite but if not too bad for u
Comments