Green Day - 2000 Light Years Away Chords & Tabs

 

2000 Light Years Away Chords & Tabs

Green Day Chords & Tabs

Version: 1 Type: Bass Tab 3 ratings
1 star 2 stars 3 stars 4 stars 5 stars
comments

2000 Light Years Away Bass Tab

   
  "2000 Light Years Away" - Green Day - Kerplunk!

Riff #1

    B       F#   Ab    F#
G|-------------------------------|
D|----------4--------------------|
A|--2-2-0-2-----------------2h4--|
E|-------------0-4-0-2--2h4------|

Riff #2

    B       F#   Ab  F#
G|------------------------------|
D|----------4-------------------|
A|--2-2-0-2---------------------|
E|-------------0-4-0-2-2-2-2-0--|

Riff #3
[ Tab from: http://www.guitartabs.cc/tabs/g/green_day/2000_light_years_away_btab.html ]
    Ab        B             Ab          F#           Em        F#
G|------------------------------------------------------------------------|
D|----------------------------------6-----4---4-4-4-----------------------|
A|------------2-2-2-2-2-4-------------------------------------------------|
E|--4-4-4-4-0-------------0-4-4---4---0-2---2--------0-0-0-0-0-2-2-2-2-2--|

Riff #4

    Bb  B   Bb  B   Bb  B   Bb  B
G|-----------------------------------|
D|-----------------------------------|
A|--1h2-2-2-1h2-2-2-1h2-2-2-1h2-2-0--|
E|-----------------------------------|

Riff #5

    B       F#   Ab    F#        B
G|-----------------------------------|
D|----------4------------------------|
A|--2-2-0-2-----------------2h4--2~--|
E|-------------0-4-0-2--2h4----------|


Comments