Green Day - 16 Chords & Tabs

 

16 Chords & Tabs

Green Day Chords & Tabs

Version: 3 Type: Tab 0 ratings
1 star 2 stars 3 stars 4 stars 5 stars
comments

16 Tab

   
* [] - Palm Mute

Intro:
-----------------------------|
-------4-------2---0-4-4-4---|
-------4-------2-----4-4-4---|
-------4-------2-2---4-4-4---|
-[2-2]--2-[0-0]-0-2---2-2-2--|
-----------0-----------------|

Verse:
-----------------------------|
-------4-------2---0-4-4-4---|
-------4-------2-----4-4-4---|
-------4-------2-2---4-4-4---|
-[2-2]--2-[0-0]-0-2---2-2-2--|
-----------0-----------------|

Chorus:
C5/// D5//// B5//

--------------------0------|
------------------0---0-0--|
---------------------------|
---------------------------|
---------------------------|
---------------------------|

C5//// D5//// B5/ Bsus/ B5//

Verse:
-----------------------------|
-------4-------2---0-4-4-4---|
-------4-------2-----4-4-4---|
-------4-------2-2---4-4-4---|
-[2-2]--2-[0-0]-0-2---2-2-2--|
-----------0-----------------|

Chorus:

C5/// D5//// B5//
[ Tab from: http://www.guitartabs.cc/tabs/g/green_day/16_tab_ver_3.html ]
--------------------0------|
------------------0---0-0--|
---------------------------|
---------------------------|
---------------------------|
---------------------------|

C5//// D5//// B5/ Bsus/ B5//

Solo:
-------------------------------|
----7-------7------7-----------|
-/8---8--/8---8--/8---8--6--4-*|
------------------------------*|
-------------------------------|
-------------------------------|

Verse:
-----------------------------|
-------4-------2---0-4-4-4---|
-------4-------2-----4-4-4---|
-------4-------2-2---4-4-4---|
-[2-2]--2-[0-0]-0-2---2-2-2--|
-----------0-----------------|

Chorus:
C5/// D5//// B5//

--------------------0------|
------------------0---0-0--|
---------------------------|
---------------------------|
---------------------------|
---------------------------|

C5//// D5//// B5/ Bsus/ B5//

Outro:
-----------------------------|
-------4-------2---0-4-4-4---|
-------4-------2-----4-4-4---|
-------4-------2-2---4-4-4---|
-[2-2]--2-[0-0]-0-2---2-2-2--|
-----------0-----------------|
Comments