Green Day - 16 Chords & Tabs

 

16 Chords & Tabs

Green Day Chords & Tabs

Version: 4 Type: Bass Tab 0 ratings
1 star 2 stars 3 stars 4 stars 5 stars
comments

16 Bass Tab

Song: 16
Band: Green Day
Bassist: Mike Dirnt
Transcripted by Angelus Rho Needreary III (Eric Needreary)
From the album 1039/Smoothed Out Slappy Hours

   P
G|-4 --> Pluck on note below
3h4  --> Hammer-on
3p2  --> Pull-of
14\  --> Slide down
2=== --> Let Ring

Intro

  \Guitar only_| 
G||------------||
D||------------||
A||-REST-------||
E||------------||

1st Verse

                           P P
G||----||------------------4-4-|------------------||
D||----||--------------2-------|------------------||
A||-14\||-0-22-000---0---2-----|-22-000-----2-22--||
E||----||----------------------|--------000-------||

  \"Every night"................"I were dead"|
                     P P
G||------------------4-4-|------------------||
D||-------------2-------|-----------------||
A||0-22-000---0---2-----|-22-000-----2-22-||
E||----------------------|--------000-------||

1st Chorus

G||---5---7---4---4-|---5---7---4---4-|---5---7---4---4-|
D||-----------------|-----------------|-----------------|
A||-33--55--22--22--|-33--55--22--22--|-33--55--22--22--|
E||-----------------|-----------------|-----------------|

G|---5---7---4---4-|
D|-----------------|
A|-33--55--22--22--|
E|-----------------|

2nd Verse

                     P P
G||------------------4-4-|------------------||
D||--------------2-------|------------------||
A||-0-22-000---0---2-----|-22-000-----2-22--||
E||----------------------|--------000-------||

  \"Look at my friends"......"comes the rain"|
                     P P
G||------------------4-4-|------------------||
D||-------------2-------|-----------------||
A||0-22-000---0---2-----|-22-000-----2-22-||
E||----------------------|--------000-------||

2nd Chorus

G||---5---7---4---4-|---5---7---4---4-|------------5-3-2-3-|
D||-----------------|-----------------|--------------------|
A||-33--55--22--22--|-33--55--22--22--|-33--55--00=========|
E||-----------------|-----------------|--------------------|
[ Tab from: http://www.guitartabs.cc/tabs/g/green_day/16_btab_ver_4.html ]
G|---5---7---4---4-|
D|-----------------|
A|-33--55--22--22--|
E|-----------------|

Bridge

        P P P
G||-----4-4-4------1-0----------||x2
D||-------------------3-2p1p0-||
A||-22-------0h22-------------||
E||-----------------------------||

       P P P
G||----4-4-4-------------||
D||----------------------||
A||-22-------0h222-22222-||
E||----------------------||

3rd Chorus

G||---5---7---4---4-|---5---7---4---4-|---5---7---------------|
D||-----------------|-----------------|-----------------------|
A||-33--55--22--22--|-33--55--22--22--|-33--55--222-0-3p2-0h2-|
E||-----------------|-----------------|-----------------------|

G|---5---7---4---4-|
D|-----------------|
A|-33--55--22--22--|
E|-----------------|

3rd Verse

                     P P
G||------------------4-4-|------------------||
D||--------------2-------|------------------||
A||-0-22-000---0---2-----|-22-000-----2-22--||
E||----------------------|--------000-------||

  \"Every night"................"I were dead"|
                     P P
G||------------------4-4-|------------------||
D||-------------2-------|-----------------||
A||0-22-000---0---2-----|-22-000-----2-22-||
E||----------------------|--------000-------||

4th Chorus

G||---5---7---4---4-|---5---7---4---4-|------------5-3-2-3-|
D||-----------------|-----------------|--------------------|
A||-33--55--22--22--|-33--55--22--22--|-33--55--00=========|
E||-----------------|-----------------|--------------------|

G|---5---7---4---4-||
D|-----------------||
A|-33--55--22--22--||
E|-----------------||

Outro

G||----5---7---4---4-|---5---7---4---4-|---5---7---------------|
D||-----------------|-----------------|-----------------------|
A||-33--55--22--22--|-33--55--22--22--|-33--55--222-0-3p2-0h2-|
E||------------------|-----------------|-----------------------|

G|---5---7---4---4--|||------------------------------||
D|-----------------|||--------------2---------------||
A|-33--55--22--22--|||-0-22-000---0---2=============||
E|------------------|||------------------------------||
Comments